PrimaNota.ru - самый крупный в мире бесплатный архив песенных текстов, аккордов, табулатур и нот


Black Stone Cherry - Maybe Someday - текст песни, таба, видео

Регистрация Запомнить меня
Войти через:  Facebook Google Twitter Vk Yandex Mail.ru

Black Stone Cherry - Maybe Someday - текст песни, таба, видео

Печатать
Просмотров: 153
-------------------------------------------------------------------------------
MAYBE SOMEDAY – Black Stone Cherry
-------------------------------------------------------------------------------
Tabbed by:      Nick Dupont (sikk_nick)
Email: sikk_nick@yahoo.com

Tuning:  Drop-Db (drop-d, ½ step low)
[Db,Ab,Db,Gb,Bb,eb]

Most of the guitar 2 stuff is very soft so you it is barely audible, so you can very 
play this entire song with just one guitar (except for the solo).

For one guitar, play Guitar 1 for the entire song, except for the solo…if you want to, 
ahead and mesh the parts together, it is really easy either way.

|Guitar 1
|-----------------------------------------------------------------------|
|-----------------------------------------------------------------------|
|-----------7-7-7-7-----------5-5-5-5---------------------5-5-5-5/7--7--|
|--0-0-0-0--7-7-7-7--5-5-5-5--5-5-5-5---------------------5-5-5-5/7--7--|
|--0-0-0-0--5-5-5-5--5-5-5-5--3-3-3-3---0-0---0-0---0-0---3-3-3-3/5--5--|
|--0-0-0-0-----------5-5-5-5------------0-0---0-0---0-0-----------------|
|Guitar2
|-----------------------------------------------------------------------|
|-----------------------------------------------------------------------|
|--7-7-7-7--7-7-7-7-----------5-5-5-5---------------------9-9-9-9/11-11-|
|--0-0-0-0--7-7-7-7--5-5-5-5--5-5-5-5---------------------x-x-x-x-----x-|
|--0-0-0-0--5-5-5-5--5-5-5-5--3-3-3-3---------------------7-7-7-7/-9--9-|
|--------------------5-5-5-5--------------------------------------------|


|Guitar 1
|-----------------------------------------------------------------------|
|-----------------------------------------------------------------------|
|-----------7-7-7-7-----------5-5-5-5---------------------5-5-5-5/7--7--|
|--0-0-0-0--7-7-7-7--5-5-5-5--5-5-5-5---------------------5-5-5-5/7--7--|
|--0-0-0-0--5-5-5-5--5-5-5-5--3-3-3-3---0-0---0-0---0-0---3-3-3-3/5--5--|
|--0-0-0-0-----------5-5-5-5------------0-0---0-0---0-0-----------------|
|Guitar 2
|-----------------------------------------------------------------------|
|----------------------------(5-5-5-5)----------------------------------|
|--7-7-7-7--7-7-7-7-----------5-5-5-5---------------------9-9-9-9/11-11-|
|--0-0-0-0--7-7-7-7--5-5-5-5--5-5-5-5---------------------x-x-x-x-----x-|
|--0-0-0-0--5-5-5-5--5-5-5-5------------------------------7-7-7-7/-9--9-|
|--------------------5-5-5-5--------------------------------------------|


Both Guitars
|----------------|
|----------------|
|--7-7\----------|
|--7-7\----------|
|--5-5\----------|
|----------------|

Verse Riff

|Guitar 1
|-----------------------------------------------------------------|
|-----------------------------------------------------------------|
|-----------------------------------------------------------------|
|------3---3-------3---3-------3---5p3---5h3---5h3---5h3---5h3----|
|--3h5---5-----3h5---5-----3h5---5-----5-----5-----5-----5-----5--|
|-----------------------------------------------------------------|
|
|Guitar 2-(optional: notes are barely audible)
|-----------------------------------------------------------------|
|-----------------------------------------------------------------|
|---------(10~-)-----(10~-)------(12~----12~--12~----12~---12~)---|
|-----------------------------------------------------------------|
|-----------------------------------------------------------------|
|-----------------------------------------------------------------|


|Guitar 1
|-----------------------------------------------------------------|
|-----------------------------------------------------------------|
|-----------------------------------------------------------------|
|------3---3-------3---3-------3---5p3---5h3---5h3---5h3---5h3----|
|--3h5---5-----3h5---5-----3h5---5-----5-----5-----5-----5-----5--|
|-----------------------------------------------------------------|
|Guitar 2
|-----------------------------------------------------------------|
|-----------------------------------------------------------------|
|------5---5-------5---5-------5---7p5---7h5---7h5---7h5---7h5----|
|--5h7---7-----5h7---7-----5h7---7-----7-----7-----7-----7-----7--|
|-----------------------------------------------------------------|
|-----------------------------------------------------------------|


CHORUS

Chorus Part 1 (play twice)

|Guitar 1
|--------------------------------------|--------------------------------------|
|--------------------------------------|--------------------------------------|
|--7-7-7-7--7-7-7-7--7-7-7-7--7-7-7-0--|--5-5-5-5--5-5-5-5--5-5-5-5--5-5-5-5--|
|--7-7-7-7--7-7-7-7--7-7-7-7--7-7-7-0--|--5-5-5-5--5-5-5-5--5-5-5-5--5-5-5-5--|
|--5-5-5-5--5-5-5-5--5-5-5-5--5-5-5-0--|--3-3-3-3--3-3-3-3--3-3-3-3--3-3-3-3--|
|--------------------------------------|--------------------------------------|
|Guitar 2
|--------------------------------------|--------------------------------------|
|--7-7-7-7--7-7-7-7--7-7-7-7--7-7-7-7--|--5-5-5-5--5-5-5-5--5-5-5-5--5-5-5-5--|
|--x-x-x-x--x-x-x-x--x-x-x-x--x-x-x-x--|--x-x-x-x--x-x-x-x--x-x-x-x--x-x-x-x--|
|--4-4-4-4--4-4-4-4--4-4-4-4--4-4-4-4--|--2-2-2-2--2-2-2-2--2-2-2-2--2-2-2-2--|
|--------------------------------------|--------------------------------------|
|--------------------------------------|--------------------------------------|


|Guitar 1
|--------------------------------------|--------------------------------------|
|--------------------------------------|--------------------------------------|
|--7-7-7-7--7-7-7-7--7-7-7-7--7-7-7-7--|--------------------------------------|
|--7-7-7-7--7-7-7-7--7-7-7-7--7-7-7-7--|--------------------------------------|
|--5-5-5-5--5-5-5-5--5-5-5-5--5-5-5-5--|-/3--------2---0--------/3---2---0----|
|--------------------------------------|--------------------------------------|
|Guitar 2
|--------------------------------------|--------------------------------------|
|--5/7-7-7--7-7-7-7--7-7-7-7--7-7-7-7--|--8--------7-----------------7--------|
|--x---x-x--x-x-x-x--x-x-x-x--x-x-x-x--|--5------------7-----------------7----|
|--2/4-4-4--4-4-4-4--4-4-4-4--4-4-4-4--|--5-----------------------------------|
|--------------------------------------|--------------------------------------|
|--------------------------------------|--------------------------------------|


Chorus Part 2

|Guitar 1
|--------------------------------------|--------------------------------------|
|--------------------------------------|--------------------------------------|
|--7-7-7-7--7-7-7-7--7-7-7-7--7-7-7-7--|--5-5-5-5--5-5-5-5--5-5-5-5--5-5-5-5--|
|--7-7-7-7--7-7-7-7--7-7-7-7--7-7-7-7--|--5-5-5-5--5-5-5-5--5-5-5-5--5-5-5-5--|
|--5-5-5-5--5-5-5-5--5-5-5-5--5-5-5-5--|--3-3-3-3--3-3-3-3--3-3-3-3--3-3-3-3--|
|--------------------------------------|--------------------------------------|
|Guitar 2
|--------------------------------------|--------------------------------------|
|--7-7-7-7--7-7-7-7--7-7-7-7--7-7-7-7--|--5-5-5-5--5-5-5-5--5-5-5-5--5-5-5-5--|
|--x-x-x-x--x-x-x-x--x-x-x-x--x-x-x-x--|--x-x-x-x--x-x-x-x--x-x-x-x--x-x-x-x--|
|--4-4-4-4--4-4-4-4--4-4-4-4--4-4-4-4--|--2-2-2-2--2-2-2-2--2-2-2-2--2-2-2-2--|
|--------------------------------------|--------------------------------------|
|--------------------------------------|--------------------------------------|


|Guitar 1
|--------------------------------------|--------------------------------------|
|--------------------------------------|--------------------------------------|
|--7-7-7-7--7-7-7-7--7-7-7-7--7-7-7-7--|--5-----------------------------------|
|--7-7-7-7--7-7-7-7--7-7-7-7--7-7-7-7--|--5-----------------------------------|
|--5-5-5-5--5-5-5-5--5-5-5-5--5-5-5-5--|--3-----------------------------------|
|--------------------------------------|--------------------------------------|
| Guitar 2
|--------------------------------------|--------------------------------------|
|--7-7-7-7--7-7-7-7--7-7-7-7--7-7-7-7--|--5-----------------------------------|
|--x-x-x-x--x-x-x-x--x-x-x-x--x-x-x-x--|--x-----------------------------------|
|--4-4-4-4--4-4-4-4--4-4-4-4--4-4-4-4--|--2-----------------------------------|
|--------------------------------------|--------------------------------------|
|--------------------------------------|--------------------------------------|


Breakdown
Play last measure twice

|Guitar 1
|----------------------------------||--------------------------------x2|
|----------------------------------||----------------------------------|
|----------------------------------||----------------------------------|
|----------------------------------||----------------------------------|
|-----3h5--5-----5-3---3-3h5p3-----||-----3h5--5-----5-3---3-3h5p3-----|
|--0---------3p0---------------5^--||--0---------3p0---------------5^--|
|Guitar 2
|----------------------------------||----------------------------------|
|----------------------------------||----------------------------------|
|--0-------------------------------||----------------------------------|
|--0----let------------------------||----------------------------------|
|--0----ring-----------------------||--0-------------------------------|
|--0-------------------------------||--0-------------------------------|


|Guitar 1
|-------------------------------------|
|-------------------------------------|
|-------------------------------------|
|-------------------------------------|
|--5-5---5----5-3-------5--3----------|
|--0---------------------------5--3---|
|Guitar 2
|--------------------------------------|
|--------------------------------------|
|--7-7---7----x-5------12-10-----------|
|--7-7---7----x-5------12-10--12--12---|
|--5-5---5----x-3----------------------|
|--------------------------------------|
SOLO

Solo—part 1

Guitar 1 plays chorus
Guitar 2 plays lead

|Guitar 2
|-------------|--------10---------------------------------------------|
|-------------|-----------13p10----10---------------------------------|
|-------10~^--|--12^14----------12----12^14r12-10--12~~~-10h12-10~~~~-|
|--/12--------|-------------------------------------------------------|
|-------------|-------------------------------------------------------|
|-------------|-------------------------------------------------------|

|--------------------------------------------------|
|--13^^15----15^^17---14^(17)r13----10h13p10~~~~---|
|--------------------------------------------------|
|--------------------------------------------------|
|--------------------------------------------------|
|--------------------------------------------------|

|---------10-----10-----10-----10-----10-----10----------------------|
|-------10-----10-----10-----10-----10-----10------------------------|
|--12^14----12^----12^----12^----12^----12^-----12^14r12--10h12p10~~-|
|--------------------------------------------------------------------|
|--------------------------------------------------------------------|
|--------------------------------------------------------------------|

|-------------------------------------------------------------------------|
|--------------------------------------------------------13^r^r~~~---15^^-|
|--12^14r12--12^14r12--12^14r12--12^14r12--12^14r12--10-------------------|
|-------------------------------------------------------------------------|
|-------------------------------------------------------------------------|
|-------------------------------------------------------------------------|


Solo—part 2

Guitar 1 plays riff (see below)
Guitar 2 plays lead

rhythm for solo-part 2
|Guitar 1
|--------------------------------------|
|--------------------------------------|
|--------------------------------------|
|--------------------------------------|
|------3h5-----------5-3---3--5--3-----|
|--3p0----------3p0-----------------5--|


|Guitar 2—strum these notes—listen to the record
|-----------------------|------------------------|
|--13---13----12----12--|--15---15----13---13----|
|---x----x-----x-----x--|---x----x-----x----x----|
|--10---10-----9-----9--|--12---12----10---10----|
|-----------------------|------------------------|
|-----------------------|------------------------|

|-----------------------|
|--15--13---------------|
|---x---x-----12--10----|
|--12--10------x---x----|
|-------------10---8----|
|-----------------------|


-----------
CHORUS 3
-----------


End of chorus 3

Guitar 1
play this, or just tremolo pick while sliding from 12-fret (6-string)

|------------------------------------------|
|------------------------------------------|
|------------------------------------------|
|------------------------------------------|
|--5-5-5-5--3-3-3-3--0-0-0-0---------------|
|-----------------------------5-5-3-3--0---|


OUTRO

|Guitar 1
|--------------------------------------|repeat…
|--------------------------------------|
|--------------------------------------|
|--------------------------------------|
|------3h5---5-------5-3---3--5--3-----|
|--3p0----------3p0-----------------5--|

|Guitar 1
|--------------------------------------|---------------|
|--------------------------------------|---------------|
|--------------------------------------|---------------|
|--------------------------------------|--0------------|
|--2/3-3-3--2-2-2--0-----/3-3-2---0----|--0------------|
|--------------------------------------|--0------------|
|Guitar 2
|--------------------------------------|---------------|
|--7--------5--------------------------|---------------|
|------------------7------5---4---2----|---------------|
|--------------------------------------|--4------------|
|--------------------------------------|---------------|
|--------------------------------------|---------------|

ENDING
|---------------------------------|
|---------------------------------|
|----7--5--------------------7-7--|
|----7--5-----5-3-----3-0----7-7--|
|----5--3-----5-3-----3-0----5-5--|
|--0--------0-5-3---0-3-0---------|


| /  slide up
| \  slide down
| h  hammer-on
| p  pull-off
| ~  vibrato
| +  harmonic
| x  Mute note
| ^ bend

^bend to pitch
12^14 means full bend--bend 12 to sound like 14

===============================================================================
Добавлено: 12.06.2012
Другие материалы по этой песне:
  • Аккорды и текст

Страница создана 22.05.2012
http://primanota.ru/black-stone-cherry/maybe-someday-chords.htm
Привет, Гость.
Предлагаем пройти революционный курс по гитаре.
Подарок от PrimaNota.Ru, забирай!