PrimaNota.ru - самый крупный в мире бесплатный архив песенных текстов, аккордов, табулатур и нот


Bilderbuch - Spliff - таба, бас-таба, видео

Регистрация Запомнить меня
Войти через:  Facebook Google Twitter Vk Yandex Mail.ru

Bilderbuch - Spliff - таба, бас-таба, видео

Печатать
Просмотров: 63
Авторы музыки: Bilderbuch
Авторы текста: Bilderbuch
-------------------------------------------------------------------------------
                             SPLIFF - Bilderbuch
-------------------------------------------------------------------------------
Tabbed by: AJ
 

Tuning:Standard

Verse

e|---------------------------------------------------------------------------|
B|---------------------------------------------------------------------------|
G|--------------2------------------------------------------------------------|
D|------------4---4-2h4p2h4-----------4-2-4----------------------------------|
A|--------0h4--------------------0h4-----------------------------------------|
E|--2--2-------------------2--2----------------------------------------------|

Pre-Chorus

e|---------------------------------------------------------------------------|
B|---------------------------------------------------------------------------|
G|---------------------------------------------------------------------------|
D|--7--------9---------------------------------------------------------------|
A|--7--------9---------------------------------------------------------------|
E|--5--------7---------------------------------------------------------------|
  (Hold the Power Chords)

Chorus/Solo

e|-17--17-17-16-14----b14---------------------------------------------------------------|
B|-----------------17-----17-14-17-14-------b14-------14--------------------------------|
G|------------------------------------16-14-----16-14----16-14----b14-------------------|
D|-------------------------------------------------------------16-----16-14-16-14-14-b16\
A|--------------------------------------------------------------------------------------|
E|--------------------------------------------------------------------------------------|

 This is my first Tab. Please comment if you wanna add or correct sth. 

************************************

| /   slide up
| \   slide down
| h   hammer-on
| p   pull-off
| ~   vibrato
| +   harmonic
| x   Mute note
| b   Bend
| pb  Pre-bend
| br  Bend release
| pbr Pre-bend release
| brb Bend release bend

************************************
Добавлено: 10.06.2016
Вам также может быть интересно:
Другие материалы по этой песне:

Страница создана 01.11.2015
http://primanota.ru/bilderbuch/spliff-chords.htm
Привет, Гость.
Предлагаем пройти революционный курс по гитаре.
Подарок от PrimaNota.Ru, забирай!