PrimaNota.ru - самый крупный в мире бесплатный архив песенных текстов, аккордов, табулатур и нот


Bilderbuch - Feinste Seide - бас-таба, видео

Регистрация Запомнить меня
Войти через:  Facebook Google Twitter Vk Yandex Mail.ru

Bilderbuch - Feinste Seide - бас-таба, видео

Печатать
Просмотров: 83
Авторы музыки: Bilderbuch
Авторы текста: Bilderbuch
Intro/Riff:
G|---------------------|
D|---------------------|
A|-------5-5-0-0-0-0-2-|
E|-0-0-0---------------|

Verse A:    (0:50)
G|------    |-----------|
D|------    |-------12--|
A|-7-7--    |7-7-7------|
E|------ x2 |-----------|  x4

Chorus A:
G|--------------------------|
D|-------12-----------------|
A|-7-7-7-----10-10-10-10-12-|
E|--------------------------|

G|---------------------------|
D|-------12-------------9----|
A|-7-7-7--------12--10-------|
E|---------------------------|

Bridge A (1:21):
G|-----------------|
D|-----------0-2-0-|
A|--------2--------|
E|-0-0-3-----------|

Verse B (1:25):
G|------    |------------------------|
D|------    |------------------------|
A|------    |-------5-5-0-0-0-0-2----|
E|-0-0-- x4 |-0-0-0------------------|  x4

Chorus B:
G|---------------------|
D|---------------------|
A|-------5-5-0-0-0-0-2-|
E|-0-0-0---------------|

G|---------------------|
D|---------------------|
A|-------5--------2----|
E|-0-0-0----5--3-------|

Bridge B (2:22):
G|---------------------------|
D|----------------0-2-0------|
A|--------2--------------2---|
E|-0-0-3-------------------3-|

Solo/Chorus=Chorus A
Добавлено: 01.11.2015
Другие материалы по этой песне:
  • Аккорды и текст

Страница создана 01.11.2015
http://primanota.ru/bilderbuch/feinste-seide-chords.htm
Привет, Гость.
Предлагаем пройти революционный курс по гитаре.
Подарок от PrimaNota.Ru, забирай!