PrimaNota.ru - самый крупный в мире бесплатный архив песенных текстов, аккордов, табулатур и нот


Bilderbuch - Willkommen Im Dshungel - бас-таба, видео

Регистрация Запомнить меня
Войти через:  Facebook Google Twitter Vk Yandex Mail.ru

Bilderbuch - Willkommen Im Dshungel - бас-таба, видео

Печатать
Просмотров: 67
main riff (verses)
G|----------------------------------|
D|-10-8-----------------------------|
A|------10-8-10-10----10------------|
E|-----------------------10-8-8-6-8-|

chorus (0:53)
G|---------------------------  -----------|
D|---------------------------  -----------|
A|-----8-8-------6-6-8-8-----  -----------|
E|-8-8-----8-8-----------8-8-  -3--3-3-3--|..

bridge (2:08):
G|--------|
D|--------|
A|--------|
E|-3(x48)-|

solo (2:23):
G|------------|
D|------------|
A|---------\3-|
E|-8(x8)------|
Добавлено: 01.11.2015
Другие материалы по этой песне:
  • Аккорды и текст

Страница создана 01.11.2015
http://primanota.ru/bilderbuch/willkommen-im-dshungel-chords.htm
Привет, Гость.
Предлагаем пройти революционный курс по гитаре.
Подарок от PrimaNota.Ru, забирай!