PrimaNota.ru - самый крупный в мире бесплатный архив песенных текстов, аккордов, табулатур и нот


Bilderbuch - Joghurt Auf Der Bluse - бас-таба, видео

Регистрация Запомнить меня
Войти через:  Facebook Google Twitter Vk Yandex Mail.ru

Bilderbuch - Joghurt Auf Der Bluse - бас-таба, видео

Печатать
Просмотров: 90
Intro                   *guitar*               (0:21)                Überleitung
G|--99-------7-8-9---|  |--------------7-9-|  |--------------5-7-|
D|-----7-8-9---------|  |--------7-8-9-----|  |--------5-6-7-----|
A|-----------------7-|  |-7---77-----------|  |-5---55-----------|
E|-------------------|x8|------------------|x4|------------------|x4|-12\-|

Verse A (0:31)
G|-------------------|  |-----------|
D|-------------------|  |-----------|
A|-------------5-6-7-|  |--5--6--7--|
E|-----------7-------|x2|-----------|

Verse B (0:45)
  2. mal "10 Uhr abends"
G|---------------------------|---------------------|-----------------------|---------------------------|
D|---------------------------|---------------------|-----------------------|---------------------------|
A|-7-7-7---5-6-7-7---5-5-6-6-|-7-7-7---5-6-7-7-7-6-|-5-5-5---3-4-5-5---5-6-|-7-7-7---5-6-7-7-7--5-6-7--|
E|-------7-------------------|-------7-------------|-------5---------------|-------7-------------------|
  A   L   L   E   S       G   L   E   I   C   H       H   I   E   R           v  a  r  i  a  t  i  o  n
G|---------------------------|---------------------|-----------------------|---------------------------|
D|---------------------------|---------------------|-----------------------|---------------------------|
A|-7-7-7---5-6-7-7---5-5-6-6-|-7-7-7---5-6-7-7-7-6-|-5-5-5---3-4-5-5---5-6-|-7-7-7---5-6-7-7-----77-77-|
E|-------7-------------------|-------7-------------|-------5---------------|-------7-------------------|

Chorus (1:15)                                      "Joghurt auf der Bluse..."
G|------------------------------------------------|                             |-----|
D|------------------------------------------------|                             |-----| dann ersten
A|---------12-12-12-12-10-------------------------|                             |-----| Teil vom
E|-8-8-8-8----------------12-12-12-12-12-12-12-12-|                             |-12\-| Chorus nochmal

Verse B (1:48)

Chorus (2:19)                                        "Joghurt auf der Bluse..."
G|------------------------------------------------|             |----------------------------------------|
D|------------------------------------------------|             |----------------------------------------|
A|---------12-12-12-12-10-------------------------|             |-12-12-12-12-10-------------------------|
E|-8-8-8-8----------------12-12-12-12-12-12-12-12-|             |----------------12-12-12-12-12-12-12-12-|
 ersten Chorus Teil wiederholen 
Добавлено: 01.11.2015
Другие материалы по этой песне:
  • Аккорды и текст

Страница создана 01.11.2015
http://primanota.ru/bilderbuch/joghurt-auf-der-bluse-chords.htm
Привет, Гость.
Предлагаем пройти революционный курс по гитаре.
Подарок от PrimaNota.Ru, забирай!