PrimaNota.ru - самый крупный в мире бесплатный архив песенных текстов, аккордов, табулатур и нот


Bilderbuch - Man Hat Mir Weh Getan - бас-таба, видео

Регистрация Запомнить меня
Войти через:  Facebook Google Twitter Vk Yandex Mail.ru

Bilderbuch - Man Hat Mir Weh Getan - бас-таба, видео

Печатать
Просмотров: 56
Уроки эстрадного вокала в Санкт-Петербурге
Intro/Verse:
G|---------------------------------|
D|-----------------2-2-2-----------|
A|-3-3-3-3-3-3-3-3-----------------|
E|-----------------------3-3-3-3-3-|

Chorus:
G|-----------------------------------------------------------------|
D|-----------------2-2-2-2-2-2-2-2-3-3-3-3-3-3-3-3-----------------|
A|-3-3-3-3-3-3-3-3-------------------------------------------------|
E|-------------------------------------------------3-3-3-3-3-3-3-3-|

Bridge/Solo Part 1 (1:00):
G|------------------------------------------|
D|----------2-2--2-0-0--0--------2-2--2-4-4-|
A|-0----------------------------------------|
E|-----3-3----------------3-3--3------------|

Solo Part 2 (1:15):
G|------------------------------------------------------------|
D|-5-5-5-5-5-5-5-5-4-4-4-4-4-4-4-4-5-5-5-5-5-5-5-5------------|
A|--------------------------------------------------0-0-0-0-0-|
E|------------------------------------------------------------|

Verse:
G|---------------------------------|
D|-----------------4-4-4-----------|
A|-5-5-5-5-5-5-5-5-----------------|
E|-----------------------5-5-5-5-5-|

Chorus:
G|--------------------------------------------------------------------|
D|-----------------4-4-4-4-4-4-4-4-5-5-5-5-5-5-5-5--------------------|
A|-5-5-5-5-5-5-5-5-------------------------------------------------5~-|
E|-------------------------------------------------5-5-5-5-5-5-5-5----|
Добавлено: 01.11.2015
Другие материалы по этой песне:
  • Аккорды и текст

Страница создана 01.11.2015
http://primanota.ru/bilderbuch/man-hat-mir-weh-getan-chords.htm
Привет, Гость.
Предлагаем пройти революционный курс по гитаре.
Подарок от PrimaNota.Ru, забирай!