PrimaNota.ru - самый крупный в мире бесплатный архив песенных текстов, аккордов, табулатур и нот


Beatsteaks - Whats Coming Over You - аккорды и текст, таба, видео

Регистрация Запомнить меня
Войти через:  Facebook Google Twitter Vk Yandex Mail.ru

Beatsteaks - Whats Coming Over You - аккорды и текст, таба, видео

Печатать
Просмотров: 131
Авторы музыки: Bernd Kurtzke, Torsten Scholz, Arnim Teutoburg-Weiß, Peter Baumann, Thomas Götz
Авторы текста: Bernd Kurtzke, Torsten Scholz, Arnim Teutoburg-Weiß, Peter Baumann, Thomas Götz
Whats Coming Over You
Beatsteaks
-------------------------------------------------------------------------------
 WHAT'S COMING OVER YOU - Beatsteaks
-------------------------------------------------------------------------------
Tabbed by: strungout777
Email: manuel_ramones4life@gmx.at 

Tuning: Sharp D Tuning

Intro: 1x
e|------------------------------------------------------|
B|-66666666-55555555----------1010101010101010-99999999-|
G|-55555555-44444444-22222222-1010101010101010-99999999-|
D|-33333333-22222222-22222222-1010101010101010-99999999-|
A|-33333333-22222222-00000000--8-8-8-8-8-8-8-8-77777777-|
E|------------------------------------------------------|

Verse: 2x
e|----------------------------------------------------|
B|-10101010101010101010101010101010-66666666-55555555-|
G|--9-9-9-9-9-9-9-9-9-9-9-9-9-9-9-9-55555555-44444444-|
D|--7-7-7-7-7-7-7-7-7-7-7-7-7-7-7-7-33333333-22222222-|
A|--7-7-7-7-7-7-7-7-7-7-7-7-7-7-7-7-33333333-22222222-|
E|----------------------------------------------------|

Pre-Chorus: 1x
e|----------------------------------------------------------------00000000-|
B|---------------------1010101010101010----------1010101010101010-00000000-|
G|---2----4----5----6--1010101010101010-44444444-1010101010101010-11111111-|
D|--2-2--5-5--5-5--7-7-1010101010101010-55555555-1010101010101010-22222222-|
A|-0----2----3----4-----8-8-8-8-8-8-8-8-55555555--8-8-8-8-8-8-8-8-22222222-|
E|--------------------------------------33333333------------------00000000-|

Chorus1: 1x
e|-55-33--8-8-8-8-|
B|-55-33--8-8-8-8-|
G|-55-44--9-9-9-9-|
D|-77-55-10101010-|
A|-77-55-10101010-|
E|-55-33--8-8-8-8-|

e|-------------------------------------------------------------------------|
B|-10101010-10101010-12121212-13131313-10101010-10101010-12121212-13131313-|
G|-10101010--9-9-9-9-12121212-12121212-10101010--9-9-9-9-12121212-12121212-|
D|-10101010--7-7-7-7-12121212-10101010-10101010--7-7-7-7-12121212-10101010-|
A|--8-8-8-8--7-7-7-7-10101010-10101010--8-8-8-8--7-7-7-7-10101010-10101010-|
E|-------------------------------------------------------------------------|

e|-000-0-000-0-000-0-000-|
B|-000-0-000-0-000-0-000-|
G|-111-1-111-1-111-1-111-|
D|-222-2-222-2-222-2-222-|
A|-222-2-222-2-222-2-222-|
E|-000-0-000-0-000-0-000-|

Verse: 2x

Pre-Chorus: 1x

Chorus1: 1x

Bridge1: 1x
e|----------------------------------------------------|
B|----------------------------------------------------|
G|-2222222222222222-1111111111111111-2222222222222222-|
D|-2222222222222222-2222222222222222-2222222222222222-|
A|-0000000000000000-2222222222222222-0000000000000000-|
E|------------------0000000000000000------------------|

e|--------------------------------------------00000000-|
B|-1010101010101010----------1010101010101010-00000000-|
G|-1010101010101010-44444444-1010101010101010-11111111-|
D|-1010101010101010-55555555-1010101010101010-22222222-|
A|--8-8-8-8-8-8-8-8-55555555--8-8-8-8-8-8-8-8-22222222-|
E|------------------33333333------------------00000000-|

Chorus2: 1x
e|-55-33--8-8-8-8-|
B|-55-33--8-8-8-8-|
G|-55-44--9-9-9-9-|
D|-77-55-10101010-|
A|-77-55-10101010-|
E|-55-33--8-8-8-8-|

Bridge2: 2x
e|-888-777-88-------------------|
B|-888-888-88-------------------|
G|------------121212-1313131313-|
D|------------121212-1212121212-|
A|------------------------------|
E|------------------------------|

Solo:
Guitar1: 2x
e|-------------------------------------------------------------------------|
B|-10101010-10101010-12121212-13131313-10101010-10101010-12121212-13131313-|
G|-10101010--9-9-9-9-12121212-12121212-10101010--9-9-9-9-12121212-12121212-|
D|-10101010--7-7-7-7-12121212-10101010-10101010--7-7-7-7-12121212-10101010-|
A|--8-8-8-8--7-7-7-7-10101010-10101010--8-8-8-8--7-7-7-7-10101010-10101010-|
E|-------------------------------------------------------------------------|

Guitar2: 1x
e|---------------------------------------------------------------------------|
B|---------------------------------------------------------------------------|
G|----------------------------------------14----1212---------12---1414-12----|
D|-----------------------------------1212----12------15-1414----14--------15-|
A|----------14-15------------1414-15-----------------------------------------|
E|-12-15-12-------1212-15-12-------------------------------------------------|

e|---------------------------------------------------------------------------|
B|---------------------------------------------------------------------------|
G|----------------------------------------------12----------12-1212121212----|
D|-14----------------------------------------12----------12------------------|
A|----151515-14-15-1414-1515--15-14-15-15-15-------14-15---------------------|
E|---------------------------------------------------------------------------|

Outro: 1x
Guitar1
e|------------------------------------------------------------------------|
B|------------------------------------------------------------------------|
G|---------------------------------------------14-12----14-12----14-12----|
D|-----------------------14-12----12-14-15-14~-------14-------14-------14-|
A|-15-15p14-14h15-15-15~-------15-----------------------------------------|
E|------------------------------------------------------------------------|

e|-----------------------|
B|-----------------------|
G|-----------------------|
D|-----------------------|
A|-15-14-12-14-15-14-12~-|
E|-----------------------|

| /  slide up
|   slide down
| h  hammer-on
| p  pull-off
| ~  vibrato
| +  harmonic
| x  Mute note
==================================================
Добавлено: 11.11.2013
Другие материалы по этой песне:

Страница создана 30.03.2012
http://primanota.ru/beatsteaks/whats-coming-over-you-chords.htm
Привет, Гость.
Предлагаем пройти революционный курс по гитаре.
Подарок от PrimaNota.Ru, забирай!