PrimaNota.ru - самый крупный в мире бесплатный архив песенных текстов, аккордов, табулатур и нот


Beatsteaks - Allright - таба, видео

Регистрация Запомнить меня
Войти через:  Facebook Google Twitter Vk Yandex Mail.ru

Beatsteaks - Allright - таба, видео

Печатать
Просмотров: 141
Artist: Beatsteaks
Song: Shit And Shine
Album: Upcoming
tabbed by: necriononguitar
e-mail (NO SPAM!): tim.rathgen@gmx.de

REAL FANS SUPPORT BANDS BY PURCHASING THEIR CD'S!!!


. = Palm-Muted
~ = hold note
^ = vibrate
p = pull off
h = hammer on
/ = slide up
\ = slide down


Tuning: Standard


Announcement: This is no actual/complete tab, its just a start! I went to a concert and 
it, so i checked YT for any recorded versions but all i could find was a live private 
heres the link:
http://www.youtube.com/watch?v=IBCtL4TIJo8

Im only tabbing out the Chorus since the video starts right in the middle of the song 
tabbing out the rest of the song soon!)...
Enjoy!

"""Chorus/Whole Line"""
E---------------------------------------------------------------------------|
B---------------------------------------------------------------------------|
G---4-4-4------6-6-6-4-4-4-------6----4-4-4-------6-6-6-4----------6-6-6----|
D---4-4-4-4----6-6-6-4-4-4-4-4-4-6----4-4-4-4-4-4-6-6-6-4----4-4-4-6-6-6----|
A---2-2-2-4----4-4-4-2-2-2-4-4-4-4----2-2-2-4-4-4-4-4-4-2----4-4-4-4-4-4----|
E---------2----------------2-2-2------------2-2-2------------2-2-2----------|

E-------------------------------------------|
B-------------------------------------------|
G---4-4-4------6-6-6-4-4-4------------------|
D---4-4-4-4----6-6-6-4-4-4------------------|
A---2-2-2-4----4-4-4-2-2-2------------------|
E---------2---------------------------------|


And the 2 Chorus is pretty much the same but afterwards theres the bridge and solo:
"""Chorus 2"""
E---------------------------------------------------------------------------|
B---------------------------------------------------------------------------|
G---4-4-4------6-6-6-4-4-4-------6----4-4-4-------6-6-6-4----------6-6-6----|
D---4-4-4-4----6-6-6-4-4-4-4-4-4-6----4-4-4-4-4-4-6-6-6-4----4-4-4-6-6-6----|
A---2-2-2-4----4-4-4-2-2-2-4-4-4-4----2-2-2-4-4-4-4-4-4-2----4-4-4-4-4-4----|
E---------2----------------2-2-2------------2-2-2------------2-2-2----------|

E-------------------------------------------|
B-------------------------------------------|
G---4-4-4------6-6-6-6-6-6------------------|
D---4-4-4-4----6-6-6-6-6-6------------------|
A---2-2-2-4----4-4-4-4-4-4------------------|
E---------2---------------------------------|


"""Bridge"""
E-------------------------------------------------------------------|
B-------------------------------------------------------------------|
G----8-8-8-8-8-8---------------6-6-6-6-6-6--6-6-6-6-6-6-------------|
D----8-8-8-8-8-8--6-6-6-6-6-6--6-6-6-6-6-6--6-6-6-6-6-6-------------|
A----6-6-6-6-6-6--6-6-6-6-6-6--4-4-4-4-4-4--4-4-4-4-4-4-------------|
E-----------------4-4-4-4-4-4---------------------------------------|

Sorry but i cant barely hear Baumann play, im going to tab out the solo after the album 
released...


And thats it! I hope this helped, please rate, comment and correct me!

Cheers...
Добавлено: 21.07.2012
Другие материалы по этой песне:
  • Аккорды и текст

Страница создана 21.07.2012
http://primanota.ru/beatsteaks/allright-chords.htm
Привет, Гость.
Предлагаем пройти революционный курс по гитаре.
Подарок от PrimaNota.Ru, забирай!