PrimaNota.ru - самый крупный в мире бесплатный архив песенных текстов, аккордов, табулатур и нот


Beatsteaks - 4849 - текст песни, таба, видео

Регистрация Запомнить меня
Войти через:  Facebook Google Twitter Vk Yandex Mail.ru

Beatsteaks - 4849 - текст песни, таба, видео

Печатать
Просмотров: 155
Авторы музыки: Bernd Kurtzke, Alexander Roßwaag, Arnim Teutoburg-Weiß, Peter Baumann
Авторы текста: Bernd Kurtzke, Alexander Roßwaag, Arnim Teutoburg-Weiß, Peter Baumann
48/49  Guitar Tabs
By: visitor_hcc@gmx.net
tune guitar 1/2step down - rhythm not tabbed out

Intro / Guitar 1        Intro / Guitar 2
e|-----------|---|     |---------------|
B|-----------|END|     |---------------|
G|--7--------|-7-|     |--9--7--6--7--9|
D|--7--5--7--|-7-|     |---------------|
A|--5--5--7--|-5-|     |---------------|
E|-----3--5--|---|     |---------------|
Verse / Guitar 1
1X time pm
e|-------------------|2  |----------------------| 
B|-------------------|t  |--------+-------------|
G|--7--------7-------|i  |--------7--4-----5----|
D|--7--7--5--7--5--7-|m  |--5--7--7--4--5--5--7-|
A|--5--7--5--5--5--7-|e  |--5--7--5--2--5--3--7-|
E|-----5--3-----3--5-|s  |--3--5--------3-----5-|

Verse / Guitar 2 (only different when +, rest is same as git.1)
comes in, with pickslide, after first part was palm muted
e|-----------------------| 
B|-----------------------|
G|--77--6--7--9--7--6--7-|
D|-----------------------|
A|-----------------------|
E|-----------------------|
Play Intro Again
Play Verse Again (without + part), then play:
Wir kommen aus Berlin......
e|------------|---------| 
B|------------|---------| 
G|--------7-4-|-----5---| 
D|--5--7--7-4-|--5--5-7-| 
A|--5--7--5-2-|--5--3-7-| 
E|--3--5------|--3----5-|
Play Intro Again, then
Guitar 1 
e|----------|   |----------| 
B|----------|   |----------| 
G|--7-------|   |--7--9~~~-| 
D|--7--5--7-|   |----------| 
A|--5--5--7-|   |----------| 
E|-----3--5-|   |----------| 
Solo:
Guitar 1 plays Intro Part
Guitar 2 plays the Solo, which i haven«t tabbed out
End on |---|
       |---|    
       |-7-|     
       |-7-|     
       |-5-|     
       |---|
Добавлено: 04.07.2012
Другие материалы по этой песне:
  • Аккорды и текст

Страница создана 04.06.2012
http://primanota.ru/beatsteaks/4849-chords.htm
Привет, Гость.
Предлагаем пройти революционный курс по гитаре.
Подарок от PrimaNota.Ru, забирай!