PrimaNota.ru - самый крупный в мире бесплатный архив песенных текстов, аккордов, табулатур и нот


Beatsteaks - Demons Galore - таба, видео

Регистрация Запомнить меня
Войти через:  Facebook Google Twitter Vk Yandex Mail.ru

Beatsteaks - Demons Galore - таба, видео

Печатать
Просмотров: 179
Уроки эстрадного вокала в Санкт-Петербурге
Авторы музыки: Bernd Kurtzke, Torsten Scholz, Arnim Teutoburg-Weiß, Peter Baumann, Thomas Götz
Авторы текста: Bernd Kurtzke, Torsten Scholz, Arnim Teutoburg-Weiß, Peter Baumann, Thomas Götz
Beatsteaks - Demons Galore

Album: Limbo Messiah
Instrument: Guitar
Tuning: 1/2 step down

Tabbed By: Rolf Oslo


Intro

d#||----------|---------------------------------|
Bb||----------|-------------5---------------5---|
F#||-4--------|---------------------------------|
C#||-----6----|-7---6--4-6------7---6--4-6------|
G#||----------|---------------------------------|
D#||----------|---------------------------------|


Verse

d#||-----------------------|
Bb||-5-------9-------------|
F#||-6-------9------8------|
C#||-6-------9------9------|
G#||-4-(12x)-7-(6x)-9------|
D#||----------------7-(6x)-| x2

d#||---------------------------------|
Bb||-5-------------------------------|
F#||-6-------5-------4-------1-------|
C#||-6-------6-------7-------2-------|
G#||-4-(12x)-6-------7-------2-------|
D#||---------4-(12X)-5-(12x)-0-(12x)-|



Chorus

Guitar #1
d#||------------------------|------------------------|
Bb||-14--12-----------------|-14--12-----------------|
F#||---------11--11--13-----|---------11--11--13--14-|
C#||---------------------14-|------------------------|
G#||------------------------|------------------------|
D#||------------------------|------------------------| x4

Guitar #2
d#||------------|------------|
Bb||------------|------------|
F#||------------|-6--8--9----|
C#||-7--6--4--2-|-6--8--9--9-|
G#||-7--6--4--2-|-4--6--7--9-|
D#||-5--4--2--0-|----------7-| x4


2. Verse
d#||-----------------------|
Bb||-5-------9-------------|
F#||-6-------9------8------|
C#||-6-------9------9------|
G#||-4-(12x)-7-(6x)-9------|
D#||----------------7-(6x)-| x2

d#||---------------------------------|
Bb||-5-------------------------------|
F#||-6-------5-------4-------8-------|
C#||-6-------6-------7-------9-------|
G#||-4-(12x)-6-------7-------9-------|
D#||---------4-(12X)-5-(12x)-7-(12x)-|


Break

Guitar #1
d#||-9-------10------|-9-------10-----4------|
Bb||-10------10------|-10------10-----5------|
F#||-9-(12x)-9-(12x)-|-9-(12x)-9-(6x)-4-(6x)-|
C#||-----------------|-----------------------|
G#||-----------------|-----------------------|
D#||-----------------|-----------------------| x2

Guitar #2
d#||-------------------------------------------------|
Bb||-------------------------------------------------|
F#||-------------------------------------------------|
C#||-------------------------------------------------|
G#||-------------------------------------------------|
D#||-5-5-5-5-5-5-5-5-5-5-5-5-7-7-7-7-7-7-7-7-7-7-7-7-|


d#||-------------------------------------------------|
Bb||-------------------------------------------------|
F#||-------------------------------------------------|
C#||-------------------------------------------------|
G#||-------------------------------------------------|
D#||-5-5-5-5-5-5-5-5-5-5-5-5-7-7-7-7-7-7-0-0-0-0-0-0-|


Guitar #1
d#||---------------------------|
Bb||---------------------------|
F#||--6--------9-------13------|
C#||--x--------x-------x-------|
G#||--4-(12x)--7-(6x)--11-(6x)-|
D#||---------------------------| x2

Guitar #2
d#||---------------------------|
Bb||---------------------------|
F#||--6--------9-------4-------|
C#||--x--------x-------x-------|
G#||--4-(12x)--7-(6x)--2--(6x)-|
D#||---------------------------| x2


d#||-------------------------|-------------------------|
Bb||-------------------------|-------------7-7-7-7-7-7-|
F#||-9-9-9-9-9-9-9-9-9-9-9-9-|-9-9-9-9-9-9-9-9-9-9-9-9-|
C#||-------------------------|-------------------------|
G#||-------------------------|-------------------------|
D#||-------------------------|-------------------------|

d#||-------------------------|-------------------------|
Bb||-------------7-7-7-7-7-7-|-1212121212129-9-9-9-9-9-|
F#||-9-9-9-9-9-9-9-9-9-9-9-9-|-9-9-9-9-9-9-9-9-9-9-9-9-|
C#||-------------------------|-------------------------|
G#||-------------------------|-------------------------|
D#||-------------------------|-------------------------|


d#||------------|------------|------------------|-----------------------|
Bb||------------|------------|------------------|-----------------------|
F#||-6--8--9----|-6--8--9----|-6--8--9-----8--9-|-6--8--9--8--9--11-13~-|
C#||-6--8--9--9-|-6--8--9--9-|-6--8--9--9--8--9-|-6--8--9--8--9--11-13~-|
G#||-4--6--7--9-|-4--6--7--9-|-4--6--7--9--6--7-|-4--6--7--6--7--9--11~-|
D#||----------7-|----------7-|----------7-------|-----------------------|


Solo
Guitar #1
d#||--------------------------|--------------------------|
Bb||-10-0-9-0-7-------7-9-7---|-10-0-9-0-7-------7-9-7---|
F#||------------9-8-9-------9-|------------9-8-9-------9-|
C#||--------------------------|--------------------------|
G#||--------------------------|--------------------------|
D#||--------------------------|--------------------------|

d#||-----------------------|-------------------------|
Bb||-----------------------|-1010109-9-9-9-9-9-7-7-7-|
F#||-6-8-9-8-6---------6-9-|-9-9-9-9-9-9-9-9-9-9-9-9-|
C#||-----------9-6---9-----|-9-9-9-9-9-9-9-9-9-9-9-9-|
G#||-----------------------|-------------------------|
D#||-----------------------|-------------------------|



d#||-------------------------|-------------------------|
Bb||-9-9-9-9-9-9-9-9-9-9-9-9-|-9-9-9-9-9-9-9-9-9-9-9-9-|
F#||-------------------------|-11111111111111111111111-|
C#||-------------------------|-------------------------|
G#||-------------------------|-------------------------|
D#||-------------------------|-------------------------|

d#||-7-7-7-7-7-7-7-7-7-7-7-7-|-------------------------|
Bb||-9-9-9-9-9-9-9-9-9-9-9-9-|-7-7-7-7-7-7-7-7-7-7-7-7-|
F#||-------------------------|-9-9-9-9-9-9-9-9-9-9-9-9-|
C#||-------------------------|-------------------------|
G#||-------------------------|-------------------------|
D#||-------------------------|-------------------------|


Guitar #2
d#||-----------------------|
Bb||-5-------9-------------|
F#||-6-------9------8------|
C#||-6-------9------9------|
G#||-4-(12x)-7-(6x)-9------|
D#||----------------7-(6x)-| x2

d#||---------------------------------|
Bb||-5-------------------------------|
F#||-6-------5-------4-------8-------|
C#||-6-------6-------7-------9-------|
G#||-4-(12x)-6-------7-------9-------|
D#||---------4-(12X)-5-(12x)-7-(12x)-|

Chorus

Guitar #1
d#||------------------------|------------------------|
Bb||-14--12-----------------|-14--12-----------------|
F#||---------11--11--13-----|---------11--11--13--14-|
C#||---------------------14-|------------------------|
G#||------------------------|------------------------|
D#||------------------------|------------------------|

Guitar #2
d#||------------|------------|
Bb||------------|------------|
F#||------------|-6--8--9----|
C#||-7--6--4--2-|-6--8--9--9-|
G#||-7--6--4--2-|-4--6--7--9-|
D#||-5--4--2--0-|----------7-|


end with 

d#||------------|
Bb||------------|
F#||------------|
C#||-7---6---4--|
G#||-7---6---4--|
D#||-5---4---2--|
Добавлено: 13.06.2012
Другие материалы по этой песне:

Страница создана 28.03.2012
http://primanota.ru/beatsteaks/demons-galore-chords.htm
Привет, Гость.
Предлагаем пройти революционный курс по гитаре.
Подарок от PrimaNota.Ru, забирай!