PrimaNota.ru - самый крупный в мире бесплатный архив песенных текстов, аккордов, табулатур и нот


Beatsteaks - Automatic - таба, бас-таба, видео

Регистрация Запомнить меня
Войти через:  Facebook Google Twitter Vk Yandex Mail.ru

Beatsteaks - Automatic - таба, бас-таба, видео

Печатать
Просмотров: 228
Авторы музыки: Bernd Kurtzke, Torsten Scholz, Arnim Teutoburg-Weiß, Pierre Baigorry, Peter Baumann, Thomas Götz
Авторы текста: Bernd Kurtzke, Torsten Scholz, Arnim Teutoburg-Weiß, Peter Baumann, Thomas Götz
Beatsteaks - Automatic

Album: Boombox
Instrument: Guitar
Tuning: eBGDAE

Tabbed By: Rolf Oslo


Intro / Verse

Guitar #1
e||------------------------------------|
B||-----------11-------9-------11------|
G||---8--8----11--8----9--8----11--8---|
D||---9--9----11--9----9--9----11--9---|
A||---9--9----9---9----7--9----9---9---|
E||---7--7--------7-------7--------7---|

Guitar #2 (intro only) 
e||------------------------------------|
B||-9-9-----9-9-----9-9------9-9-------|
G||-9-9-8---9-9-8---9-9-8----9-9-8-----|
D||-----9-------9-------9--------9-----|
A||------------------------------------|
E||------------------------------------|


Pre-Chorus
e||------------------------------------|----------------------------------|
B||-12-12--12--12--12----------14--14--|--12--12--12--12----------14--14--|
G||-13-13--13--13--13--11--11--11--11--|--13--13--13--13--11--11--11--11--|
D||-13-13--13--13--13--13--13--11--11--|--13--13--13--13--13--13--11--11--|
A||-11-11--11--11--11--13--13--13--13--|--11--11--11--11--13--13--13--13--|
E||--------------------11--11--11--11--|------------------11--11--11--11--|

e||-----------------------------|------------------------------------------------------|
B||-7--7--7--7--12--12--11--11--|--12--12--12--12---11-11--11-11--11-11--11-11--11--11-|
G||-9--9--9--9--13--13--11--11--|--13--13--13--13---11-11--11-11--11-11--11-11--11--11-|
D||-9--9--9--9--13--13--11--11--|--13--13--13--13---11-11--11-11--11-11--11-11--11--11-|
A||-7--7--7--7--11--11--9---9---|--11--11--11--11---9--9---9--9---9--9---9--9---9---9--|
E||-----------------------------|------------------------------------------------------|


Chorus
e||---------|
B||-0-11-12-|
G||---------|
D||---------|
A||---------|
E||---------|


Verse
e||------------------------------------|
B||-----------11-------9-------11------|
G||---8--8----11--8----9--8----11--8---|
D||---9--9----11--9----9--9----11--9---|
A||---9--9----9---9----7--9----9---9---|
E||---7--7--------7-------7--------7---|


Pre-Chorus
e||------------------------------------|----------------------------------|
B||-12-12--12--12--12----------14--14--|--12--12--12--12----------14--14--|
G||-13-13--13--13--13--11--11--11--11--|--13--13--13--13--11--11--11--11--|
D||-13-13--13--13--13--13--13--11--11--|--13--13--13--13--13--13--11--11--|
A||-11-11--11--11--11--13--13--13--13--|--11--11--11--11--13--13--13--13--|
E||--------------------11--11--11--11--|------------------11--11--11--11--|

e||-----------------------------|------------------------------------------------------|
B||-7--7--7--7--12--12--11--11--|--12--12--12--12---11-11--11-11--11-11--11-11--11--11-|
G||-9--9--9--9--13--13--11--11--|--13--13--13--13---11-11--11-11--11-11--11-11--11--11-|
D||-9--9--9--9--13--13--11--11--|--13--13--13--13---11-11--11-11--11-11--11-11--11--11-|
A||-7--7--7--7--11--11--9---9---|--11--11--11--11---9--9---9--9---9--9---9--9---9---9--|
E||-----------------------------|------------------------------------------------------|


Chorus
e||---------|
B||-0-11-12-|
G||---------|
D||---------|
A||---------|
E||---------|


Break
Guitar #1
e||-----------11------------------11-------|
B||--------12----12------------12-----12---|
G||----11-----------11------11-------------|
D||-14------------------14-----------------|
A||----------------------------------------|
E||----------------------------------------|

Guitar #2 comes in at 3:18
e||--------------------------------------------|
B||--------------------------------------------|
G||-13--11-----11-------11-13--11-----11-------|
D||---------14----13-14------------14----14-13-|
A||--------------------------------------------|
E||--------------------------------------------|


Pre-Chorus
e||-------|
B||-------|
G||-------|
D||---8-9-|
A||-------|
E||-7-----|

Chorus / Outro
e||---------|
B||-0-11-12-|
G||---------|
D||---------|
A||---------|
E||---------|

Добавлено: 25.03.2012
Другие материалы по этой песне:
  • Аккорды и текст

Страница создана 25.03.2012
http://primanota.ru/beatsteaks/automatic-chords.htm
Привет, Гость.
Предлагаем пройти революционный курс по гитаре.
Подарок от PrimaNota.Ru, забирай!