PrimaNota.ru - самый крупный в мире бесплатный архив песенных текстов, аккордов, табулатур и нот


Beatsteaks - Bullets From Another Dimension - таба, видео

Регистрация Запомнить меня
Войти через:  Facebook Google Twitter Vk Yandex Mail.ru

Beatsteaks - Bullets From Another Dimension - таба, видео

Печатать
Просмотров: 136
Авторы музыки: Bernd Kurtzke, Torsten Scholz, Arnim Teutoburg-Weiß, Peter Baumann, Thomas Götz
Авторы текста: Bernd Kurtzke, Torsten Scholz, Arnim Teutoburg-Weiß, Peter Baumann, Thomas Götz
Beatsteaks - Bullets From Another Dimension

Album: Boombox
Instrument: Guitar
Tuning: eBGDAE

Tabbed By: Rolf Oslo


e||---------------------------------|
B||-5-5-5-5-5-5-5-5-7-7-7-7-7-7-7-7-|
G||-6-6-6-6-6-6-6-6-8-8-8-8-8-8-8-8-|
D||-6-6-6-6-6-6-6-6-8-8-8-8-8-8-8-8-|
A||-4-4-4-4-4-4-4-4-6-6-6-6-6-6-6-6-|
E||---------------------------------| x4


Spread the news all across the nation
Firing bullets from another dimension
e||--------------------------|
B||-------12-----------------|
G||-4-----13-----4-----------|
D||-6-----13-----6-----------|
A||-6-----11-----6-----6-----|
E||-4------------4-----4-----|


I'll be working in your dreams
e||---------------------------------|
B||---------------------------------|
G||-----------------4-4-4-4-4-4-4-4-|
D||-2-2-2-2-2-2-2-2-4-4-4-4-4-4-4-4-|
A||-2-2-2-2-2-2-2-2-2-2-2-2-2-2-2-2-|
E||-0-0-0-0-0-0-0-0-----------------|


trying to keep them neat and clean
e||---------------------------------|
B||---------------------------------|
G||---------------------------------|
D||-4-4-4-4-4-4-4-4-6-6-6-6-6-6-6-6-|
A||-4-4-4-4-4-4-4-4-6-6-6-6-6-6-6-6-|
E||-2-2-2-2-2-2-2-2-4-4-4-4-4-4-4-4-|


You won't miss a thing 
you will love the spin you're in 
e||---------------------------------|
B||---------------------------------|
G||---------------------------------|
D||-2-2-2-2-2-2-2-2-2-2-2-2-2-2-2-2-|
A||-2-2-2-2-2-2-2-2-2-2-2-2-2-2-2-2-|
E||-0-0-0-0-0-0-0-0-0-0-0-0-0-0-0-0-| x2


Until the lights come on
I'll keep your troubles out
I'll give you what you need
I will console you while you sleep
e||-2------4------2------4-----|
B||-4------5------4------5-----|
G||-4------4------4------4-----|
D||-4------6------4------6-----|
A||-2------4------2------4-----|
E||----------------------------|


there is no time to find out why
this is the time for pigs to fly
the organ plays and the bells will ring
now cut the crap, let the games begin
e||---------------------------------|
B||-5-5-5-5-5-5-5-5-7-7-7-7-7-7-7-7-|
G||-6-6-6-6-6-6-6-6-8-8-8-8-8-8-8-8-|
D||-6-6-6-6-6-6-6-6-8-8-8-8-8-8-8-8-|
A||-4-4-4-4-4-4-4-4-6-6-6-6-6-6-6-6-|
E||---------------------------------|


Spread the news all across the nation
Firing bullets from another dimension
e||--------------------------|
B||-------12-----------------|
G||-4-----13-----4-----------|
D||-6-----13-----6-----------|
A||-6-----11-----6-----6-----|
E||-4------------4-----4-----|

I'll be working in your dreams
Guitar #1
e||---------------------------------|
B||---------------------------------|
G||-----------------4-4-4-4-4-4-4-4-|
D||-2-2-2-2-2-2-2-2-4-4-4-4-4-4-4-4-|
A||-2-2-2-2-2-2-2-2-2-2-2-2-2-2-2-2-|
E||-0-0-0-0-0-0-0-0-----------------|

Guitar #2 
e||-7------------7-----------|
B||-----9------------9-------|
G||---------8------------8---|
D||--------------------------|
A||--------------------------|
E||--------------------------|


trying to keep them neat and clean
Guitar #1 
e||---------------------------------|
B||---------------------------------|
G||---------------------------------|
D||-4-4-4-4-4-4-4-4-6-6-6-6-6-6-6-6-|
A||-4-4-4-4-4-4-4-4-6-6-6-6-6-6-6-6-|
E||-2-2-2-2-2-2-2-2-4-4-4-4-4-4-4-4-|

Guitar #2 
e||-7------------7-----------|
B||-----9------------9-------|
G||---------8------------8---|
D||--------------------------|
A||--------------------------|
E||--------------------------|


You won't miss a thing 
you will love the spin you're in 
Guitar #1
e||---------------------------------|
B||---------------------------------|
G||---------------------------------|
D||-2-2-2-2-2-2-2-2-2-2-2-2-2-2-2-2-|
A||-2-2-2-2-2-2-2-2-2-2-2-2-2-2-2-2-|
E||-0-0-0-0-0-0-0-0-0-0-0-0-0-0-0-0-| x2

Guitar #2 
e||-6------------6-----------6-----6-------6-----6---------|
B||-----9------------9---------9-------9-----9-------9-----|
G||---------8------------8-------8-------8-----8-------8---|
D||--------------------------------------------------------|
A||--------------------------------------------------------|
E||--------------------------------------------------------|


Until the lights come on
I'll keep your troubles out
I'll give you what you need
I will console you while you sleep
e||-2------4------2------4-----|
B||-4------5------4------5-----|
G||-4------4------4------4-----|
D||-4------6------4------6-----|
A||-2------4------2------4-----|
E||----------------------------|


there is no time to find out why
this is the time for pigs to fly
e||---------------------------------|---------------------------------|
B||---------------------------------|---------------------------------|
G||-----------------4-4-4-4-4-4-4-4-|---------------------------------|
D||-2-2-2-2-2-2-2-2-4-4-4-4-4-4-4-4-|-4-4-4-4-4-4-4-4-6-6-6-6-6-6-6-6-|
A||-2-2-2-2-2-2-2-2-2-2-2-2-2-2-2-2-|-4-4-4-4-4-4-4-4-6-6-6-6-6-6-6-6-|
E||-0-0-0-0-0-0-0-0-----------------|-2-2-2-2-2-2-2-2-4-4-4-4-4-4-4-4-|

the organ plays and the bells will ring
now cut the crap, let the games begin
e||--------------------------------|---------------------------------|
B||--------------------------------|---------------------------------|
G||-9-9-9-9-9-9-9-9-9-9-9-9---9-9--|-9-9-9-9-9-9-9-9-9-9-9-9-9-9-9-9-|
D||-9-9-9-9-9-9-9-9-9-9-9-9---9-9--|-9-9-9-9-9-9-9-9-9-9-9-9-9-9-9-9-|
A||-7-7-7-7-7-7-7-7-7-7-7-7---7-7--|-7-7-7-7-7-7-7-7-7-7-7-7-7-7-7-7-|
E||--------------------------------|---------------------------------|


I'll be the one you can always lean on 
you will forget where you're coming from 
e||-2------4------2------4-----|
B||-4------5------4------5-----|
G||-4------4------4------4-----|
D||-4------6------4------6-----|
A||-2------4------2------4-----|
E||----------------------------|


Will you be where I will take care?
I'll be at your side
e||--------------------|-4-----|
B||--------------------|-5-----|
G||------4-------------|-4-----|
D||-2----4----4----6---|-6-----|
A||-2----2----4----6---|-4-----|
E||-0---------2----4---|-------|


Solo Part
e||---------------------------------|
B||-5-5-5-5-5-5-5-5-7-7-7-7-7-7-7-7-|
G||-6-6-6-6-6-6-6-6-8-8-8-8-8-8-8-8-|
D||-6-6-6-6-6-6-6-6-8-8-8-8-8-8-8-8-|
A||-4-4-4-4-4-4-4-4-6-6-6-6-6-6-6-6-|
E||---------------------------------|


Spread the news all across the nation
Firing bullets from another dimension
e||--------------------------|
B||-------12-----------------|
G||-4-----13-----4-----------|
D||-6-----13-----6-----------|
A||-6-----11-----6-----6-----|
E||-4------------4-----4-----|
Добавлено: 18.07.2012
Другие материалы по этой песне:
  • Аккорды и текст

Страница создана 18.07.2012
http://primanota.ru/beatsteaks/bullets-from-another-dimension-chords.htm
Привет, Гость.
Предлагаем пройти революционный курс по гитаре.
Подарок от PrimaNota.Ru, забирай!