PrimaNota.ru - самый крупный в мире бесплатный архив песенных текстов, аккордов, табулатур и нот


Beatsteaks - Salty Salute - таба, видео

Регистрация Запомнить меня
Войти через:  Facebook Google Twitter Vk Yandex Mail.ru

Beatsteaks - Salty Salute - таба, видео

Печатать
Просмотров: 113
Авторы: Guided by Voices

Artist: Beatsteaks
Song: Salty Salute
Album: Unknown
tabbed by: necriononguitar
e-mail (NO SPAM!): tim.rathgen@gmx.de

REAL FANS SUPPORT BANDS BY PURCHASING THEIR CD'S!!!


. = Palm-Muted
~ = hold note
^ = vibrate
p = pull off
h = hammer on
/ = slide up
\ = slide down


Tuning: Standard

"""The Whole Song Is One Part, So I Dont Name Verse/Chorus etc."""
Guitar 1
E----------------------------------------|
B----------------------------------------|
G----9-9-9-9-9-9-9-9-9-------------------|    repeat this through the whole
D----x-x-x-x-x-x-x-x-x-...---------------|    song
A----7-7-7-7-7-7-7-7-7-------------------|
E----------------------------------------|


Guitar 2
E---0-0-0~---------------|
B---0-0-0~---------------|  u will hear this small riff over and over through
G---1-1-1~---------------|  whole song, so jsut repeat it a lil
D------------------------|
A------------------------|
E------------------------|


Guitar 3     plays another melodic note combination
E----12-12-12-12-12-12-12-12-------------|
B----12-12-12-12-12-12-12-12-...---------|
G---(9)(9)(9)(9)(9)(9)(9)(9)-------------|
D----------------------------------------|
A----------------------------------------|
E----------------------------------------|


Guitar 4     starts to play at about 0:45
E----------------------------------------------------------|
B----------------------------------------------------------|
G----------------------------------------------------------|
D---2--2--2---9--9--9--9--9----2--2--2---7--7--7--7--7-----|
A---2--2--2---9--9--9--9--9----2--2--2---7--7--7--7--7-----|
E---0--0--0---7--7--7--7--7----0--0--0---5--5--5--5--5-----|

E----------------------------------------------------------|
B----------------------------------------------------------|
G----------------------------------------------------------|
D---6--6--6---4--4--4--4--4----6--6--6---7--7--7--7--7-----|
A---6--6--6---4--4--4--4--4----6--6--6---7--7--7--7--7-----|
E---4--4--4---2--2--2--2--2----4--4--4---5--5--5--5--5-----|


Guitar 5
E---------------------------------------------------------------------------|
B---------------------------------------------------------------------------|
G---9--9--9----16--16--16--16--16-----9--9--9----14--14--14--14--14---------|
D---x--x--x----x---x---x---x---x------x--x--x----x---x---x---x---x----------|
A---7--7--7----14--14--14--14--14-----7--7--7----12--12--12--12--12---------|
E---------------------------------------------------------------------------|

E---------------------------------------------------------------------------|
B---------------------------------------------------------------------------|
G---13--13--13----11--11--11--11--11----13--13--13----14--14--14--14--14----|
D---x---x---x-----x---x---x---x---x-----x---x---x-----x---x---x---x---x-----|
A---11--11--11----9---9---9---9---9-----11--11--11----12--12--12--12--12----|
E---------------------------------------------------------------------------|


Guitar 6  starts to play at 1:19
E---------------------------------------------|
B---------------------------------------------|
G----16--16--16--16--16--16--16--16-----------|
D----x---x---x---x---x---x---x---x---...------|
A----14--14--14--14--14--14--14--14-----------|
E---------------------------------------------|


And the Outro is just a lil guitar foolin around on the E string...


Thats it! I hope this helped, please rate, comment and correct me!

Cheers...
Добавлено: 26.04.2012
Другие материалы по этой песне:
  • Аккорды и текст

Страница создана 26.04.2012
http://primanota.ru/beatsteaks/salty-salute-chords.htm
Привет, Гость.
Предлагаем пройти революционный курс по гитаре.
Подарок от PrimaNota.Ru, забирай!