PrimaNota.ru - самый крупный в мире бесплатный архив песенных текстов, аккордов, табулатур и нот


Beatsteaks - True Fine Love - таба, видео

Регистрация Запомнить меня
Войти через:  Facebook Google Twitter Vk Yandex Mail.ru

Beatsteaks - True Fine Love - таба, видео

Печатать
Просмотров: 109
Авторы музыки: Steve Miller

-------------------------------------------------------------------------------
                             True Fine Love - Beatsteaks
-------------------------------------------------------------------------------
Tabbed by: moddoxx
Email: moddoxx@yahoo.de

Tuning: 1/2 step down

The original is by Steve Miller, this is the cover-version by the Beatsteaks
(You can find it on the limited Wohnzimmer-EP album)

Intro:

e|--------------------------------------|
B|--------------------------------------|
G|-4---------44-------4-----------------|
D|-4-x-6-66--44-6-66--6-x-6-66--222224--|
A|-2-x-6-66--22-6-66--6-x-6-66--222224--|
E|---x-4-24-----4-24----x-4-24--000002--|

Verse:

   "Ain't complanin' but..."

e|----------------------------------------------------------------------------|
B|----------------------------------------------------------------------------|
G|-4---------44-------4---------44-------4---------44-------4--------44-------|
D|-4-x-6-66--44-6-66--6-x-6-66--44-6-66--4-x-6-66--44-6-66--4-x-6-66-44-6-66--|
A|-2-x-6-66--22-6-66--6-x-6-66--22-6-66--2-x-6-66--22-6-66--2-x-6-66-22-6-66--|
E|---x-4-24-----4-24----x-4-24-----4-24----x-4-24-----4-24----x-4-24----4-24--|

Refrain:

   "Cause the time is right..."

e|--------------------------------------------------------------------------|
B|--------------------------------------------------------------------------|
G|-44444444----------44444444----------44444444-----------------------------|
D|-44444444-44444444-44444444-22222222-44444444-44444444-66666666-22222222--|
A|-22222222-44444444-22222222-22222222-22222222-44444444-66666666-22222222--|
E|----------22222222----------00000000----------22222222-44444444-00000000--|

   "So c'mon pretty baby..."

e|-----------------------------------------------------|
B|-----------------------------------------------------|
G|-44444444-----------4---------44--------...........--|
D|-44444444-44444444--4-x-6-66--44-6-66---...........--|
A|-22222222-44444444--2-x-6-66--22-6-66----------------|
E|----------22222222----x-4-24-----4-24----------------|

Repeat Verse & Refrain

Solo I:

   "Mister Peter Bauman..."                         "Ouah-Ouah".....

e|-----------------------------------------------------|
B|-----------------------------------------------------|
G|-4---------------------------------------------------|
D|-4-x-6-66------------------------------xx-xx--xx-xx--|
A|-2-x-6-66--2-4-6-4-2---22-4-6-4-2-4-2~-xx xx--xx-xx--|
E|---x-4-24------------4-------------------------------|

e|-------------------------------------|
B|-------------------------------------|
G|-------------------------------------|
D|-------------------------------------|
A|-22-4-6-4-2---22-4-6-4-2-4--------2--|
E|------------4--------------4~-2-4----|

e|----------------------------------------------------------------|
B|----------------------------------------------------------------|
G|---------------------------------4-6-4---4-----4-6-4---4-----4--|
D|-------------------4-6-4---4-4-6-------6---4-6-------6---4-6----|
A|-----2-4-2---2-2-7-------6--------------------------------------|
E|-2-4-------4----------------------------------------------------|

e|--------------------------------------------------------------------------------------------------|
B|--------------------------------------------------------------------------------------------------|
G|-6b7-6b7-6b7r6-4-6-6-4-6b7r6-4-6b8~-6b8-6b8-6b8-6b8r4~-----4-6b8-6b8-6b8r6-4-6~-66-4-6b86-4-6-4~--|
D|-------------------------------------------------------4-6----------------------------------------|
A|--------------------------------------------------------------------------------------------------|
E|--------------------------------------------------------------------------------------------------|

Verse & Refrain (No guitar, only drums)

e|---------------------------------------------------------------------------|
B|---------------------------------------------------------------------------|
G|---------------------------------------------------------------------------|
D|---------------------------------------------------------------------------|
A|---------------------------------------------------------------------------|
E|---------------------------------------------------------------------------|

Solo II:

e|-----------------------------------------------------------------------------------------------------------------------------------|
B|----4-7-77-7/9------------------7-9-12-9-7------------7/9-7-77--------------7/9-7-77--------------7/9-7--------7/9-7---------------|
G|--4------------8-6-4-66-6/8-4-8------------8-5-4-66-4----------4-66-4-6/8------------4-6-6/8-6-4---------4-6~---------4-6-6/8-6-4--|
D|-----------------------------------------------------------------------------------------------------------------------------------|
A|-----------------------------------------------------------------------------------------------------------------------------------|
E|-----------------------------------------------------------------------------------------------------------------------------------|

e|----------------------------------------------------------------------|
B|--7/9-7---------------------------------------------------------------|
G|--------4-6-66-4-6/8-6-4-6-4~-4h6-4h6-4h6-4h6-4h6-4h6-4h6-4h6-4h6-4~--|
D|----------------------------------------------------------------------|
A|----------------------------------------------------------------------|
E|----------------------------------------------------------------------|

Enjoy ;-)

| /  slide up
| \  slide down
| h  hammer-on
| p  pull-off
| ~  vibrato
| +  harmonic
| x  Mute note
===============================================================================
Добавлено: 23.04.2012
Другие материалы по этой песне:
  • Аккорды и текст

Страница создана 23.04.2012
http://primanota.ru/beatsteaks/true-fine-love-chords.htm
Привет, Гость.
Предлагаем пройти революционный курс по гитаре.
Подарок от PrimaNota.Ru, забирай!