PrimaNota.ru - самый крупный в мире бесплатный архив песенных текстов, аккордов, табулатур и нот


Beatsteaks - Sharp Cool Collected - таба, видео

Регистрация Запомнить меня
Войти через:  Facebook Google Twitter Vk Yandex Mail.ru

Beatsteaks - Sharp Cool Collected - таба, видео

Печатать
Просмотров: 125
Уроки эстрадного вокала в Санкт-Петербурге
Beatsteaks - Sharp, Cool & Collected

Album: Limbo Messiah
Instrument: Guitar
Tuning: eBGDAE

Tabbed By: Rolf Oslo


Intro & Verse

e||-----------|
B||-6---------|
G||-6----6----|
D||-6----7----|
A||-4----7----|
E||------5----|


Chorus

e||--------------------------------------------------------------|
B||--------------------------------------------------------------|
G||-9-9-9-8--9------------------10-10-10-9--10---10-10-10-9--10--|
D||-9-9-9-8--9--10-10-10-9--10--10-10-10-9--10---10-10-10-9--10--|
A||-7-7-7-6--7--10-10-10-9--10--8--8--8--7--8----8--8--8--7--8---|
E||-------------8--8--8--7--8------------------------------------| x2

e||----------------------------------------------------|
B||----------------------------------------------------|
G||------------------10-10--10-10--10-10-10--10-10--10-|
D||-10-10--10-10--10-10-10--10-10--10-10-10--10-10--10-|
A||-10-10--10-10--10-8--8---8--8---8--8--8---8--8---8--|
E||-8--8---8--8---8------------------------------------|

e||--------------------------------------------------------------------|
B||--------------------------------------------------------------------|
G||-9--9-9--9-9--9-------------------10-10--10-10--10-10-10--10-10--10-|
D||-9--9-9--9-9--9--10-10--10-10--10-10-10--10-10--10-10-10--10-10--10-|
A||-7--7-7--7-7--7--10-10--10-10--10-8--8---8--8---8--8--8---8--8---8--|
E||-----------------8--8---8--8---8------------------------------------|


Post-Chorus & 2nd Verse

e||-----------------------------------------------|
B||-----------------------------------------------|
G||-6-6-6--6-6--6-6-6--6-6------------------------|
D||-6-6-6--6-6--6-6-6--6-6-7-7-7--7-7--7-7-7--7-7-|
A||-4-4-4--4-4--4-4-4--4-4-7-7-7--7-7--7-7-7--7-7-|
E||------------------------5-5-5--5-5--5-5-5--5-5-|


Chorus x2

e||--------------------------------------------------------------|
B||--------------------------------------------------------------|
G||-9-9-9-8--9------------------10-10-10-9--10---10-10-10-9--10--|
D||-9-9-9-8--9--10-10-10-9--10--10-10-10-9--10---10-10-10-9--10--|
A||-7-7-7-6--7--10-10-10-9--10--8--8--8--7--8----8--8--8--7--8---|
E||-------------8--8--8--7--8------------------------------------| x2

e||----------------------------------------------------|
B||----------------------------------------------------|
G||------------------10-10--10-10--10-10-10--10-10--10-|
D||-10-10--10-10--10-10-10--10-10--10-10-10--10-10--10-|
A||-10-10--10-10--10-8--8---8--8---8--8--8---8--8---8--|
E||-8--8---8--8---8------------------------------------|

e||--------------------------------------------------------------------|
B||--------------------------------------------------------------------|
G||-9--9-9--9-9--9-------------------10-10--10-10--10-10-10--10-10--10-|
D||-9--9-9--9-9--9--10-10--10-10--10-10-10--10-10--10-10-10--10-10--10-|
A||-7--7-7--7-7--7--10-10--10-10--10-8--8---8--8---8--8--8---8--8---8--|
E||-----------------8--8---8--8---8------------------------------------| 


Outro

e||-----------------------------------------------|
B||-----------------------------------------------|
G||-6-6-6--6-6--6-6-6--6-6------------------------|
D||-6-6-6--6-6--6-6-6--6-6-7-7-7--7-7--7-7-7--7-7-|
A||-4-4-4--4-4--4-4-4--4-4-7-7-7--7-7--7-7-7--7-7-|
E||------------------------5-5-5--5-5--5-5-5--5-5-|
Добавлено: 05.06.2012
Другие материалы по этой песне:
  • Аккорды и текст

Страница создана 05.06.2012
http://primanota.ru/beatsteaks/sharp-cool-collected-chords.htm
Привет, Гость.
Предлагаем пройти революционный курс по гитаре.
Подарок от PrimaNota.Ru, забирай!