PrimaNota.ru - самый крупный в мире бесплатный архив песенных текстов, аккордов, табулатур и нот


Beatsteaks - Schlecht - текст песни, таба, видео

Регистрация Запомнить меня
Войти через:  Facebook Google Twitter Vk Yandex Mail.ru

Beatsteaks - Schlecht - текст песни, таба, видео

Печатать
Просмотров: 183
Уроки эстрадного вокала в Санкт-Петербурге
Авторы музыки: Bernd Kurtzke, Alexander Roßwaag, Arnim Teutoburg-Weiß, Peter Baumann
Авторы текста: Bernd Kurtzke, Alexander Roßwaag, Arnim Teutoburg-Weiß, Peter Baumann
First, I'm not sure I got the whole 1st and 2nd guitar stuff right. But it actually sounds right to me :) 
This is my first tab I put in here, so it would be nice if you rated. thx.

Tuning: 1/2 step down


INTRO

1st guitar
eb|------|------------------------|
Bb|------|------------------------|
Gb|--9~--|-9-9-9-9-9--------------|
Db|--7~--|-9-9-9-9-9-10-9-9-10-9--|
Ab|--7~--|-7-7-7-7-7--8-7-7--8-7--|
Eb|------|------------8-7-7--8-7--|
         \________________________/ 
                     2x

2nd guitar
eb|------|
Bb|------|
Gb|------|
Db|--2~--|
Ab|--2~--|
Eb|--0~--|
       


VERSE

1st (+2nd?) guitar
eb|------------------------|
Bb|------------------------|
Gb|-9-9-9-9-9--------------|
Db|-9-9-9-9-9-10-9-9-10-9--|
Ab|-7-7-7-7-7--8-7-7--8-7--|
Eb|------------8-7-7--8-7--|
  \________________________/
             4x


BRIDGE   

1st guitar    
eb|-------------------------------------------|
Bb|-------------------------------------------|
Gb|-----------9-9-9-9-9-9-9-9-9-9-9-9-9-9-9-9-|
Db|-7----9----9-9-9-9-9-9-9-9-9-9-9-9-9-9-9-9-|
Ab|-7----9----7-7-7-7-7-7-7-7-7-7-7-7-7-7-7-7-|
Eb|-5----7------------------------------------|
  
2nd guitar
eb|-------------------------------------------|
Bb|-------------------------------------------|
Gb|-------------------------------------------|
Db|-7----9----2-2-2-2-2-2-2-2-2-2-2-2-2-2-2-2-|
Ab|-7----9----2-2-2-2-2-2-2-2-2-2-2-2-2-2-2-2-|
Eb|-5----7----0-0-0-0-0-0-0-0-0-0-0-0-0-0-0-0-|



1st guitar
eb|-------------------------------------------|-----|
Bb|-------------------------------------------|-----|
Gb|-----------9-9-9-9-9-9-9-9-9-9-9-9-9-9-9-9-|-9~--|
Db|-7----9----9-9-9-9-9-9-9-9-9-9-9-9-9-9-9-9-|-9~--|
Ab|-7----9----7-7-7-7-7-7-7-7-7-7-7-7-7-7-7-7-|-7~--|
Eb|-5----7------------------------------------|-----|
              \_____________________________/
                           4x 

2nd guitar
eb|-------------------------------------------|-----|
Bb|-------------------------------------------|-----|
Gb|-------------------------------------------|-----|
Db|-7----9----2-2---2-4---5---2-2---2-4---5---|-2~--|
Ab|-7----9----2-2---2-4---5---2-2---2-4---5---|-2~--|
Eb|-5----7----0-0---0-2---3---0-0---0-2---3---|-0~--|
              \_____________________________/
                           4x


INTERLUDE (?, dunno what to call it)

1st (+2nd?) guitar
eb|---------------------------------------------------|
Bb|---------------------------------------------------|
Gb|----------------5--2--7--------------------7--5--4-|
Db|-2-2-2-2-2-2-2--5--2--7-----2-2-2-2-2-2-2--7--5--4-|
Ab|-2-2-2-2-2-2-2--3--0--5-----2-2-2-2-2-2-2--5--3--2-|
Eb|-0-0-0-0-0-0-0--------------0-0-0-0-0-0-0----------|
        \_______/                  \_______/
          P.M.                       P.M.


1st guitar
eb|------------------------------------------------------------|
Bb|------------------------------------------------------------|
Gb|----------------5--2--7--------------------7--5--4----------|
Db|-2-2-2-2-2-2-2--5--2--7-----2-2-2-2-2-2-2--7--5--4----------|
Ab|-2-2-2-2-2-2-2--3--0--5-----2-2-2-2-2-2-2--5--3--2----------|
Eb|-0-0-0-0-0-0-0--------------0-0-0-0-0-0-0-------------------|
        \_______/                  \_______/
          P.M.                       P.M.

2nd guitar
eb|------------------------------------------------------------|
Bb|------------------------------------------------------------|
Gb|----------------5--2--7-------------------------------------|
Db|-2-2-2-2-2-2-2--5--2--7-----2-2-2-2-2-2-2-2-2-2-2-2-2-2-2-2-|
Ab|-2-2-2-2-2-2-2--3--0--5-----2-2-2-2-2-2-2-2-2-2-2-2-2-2-2-2-|
Eb|-0-0-0-0-0-0-0--------------0-0-0-0-0-0-0-0-0-0-0-0-0-0-0-0-|
        \_______/                  \_________________________/
          P.M.                       P.M.


CHORUS
1st (+2nd?) guitar
eb|---------------------------------------------------|
Bb|---------------------------------------------------|
Gb|----------------5--2--7--------------------7--5--4-|
Db|-2-2-2-2-2-2-2--5--2--7-----2-2-2-2-2-2-2--7--5--4-|
Ab|-2-2-2-2-2-2-2--3--0--5-----2-2-2-2-2-2-2--5--3--2-|
Eb|-0-0-0-0-0-0-0--------------0-0-0-0-0-0-0----------|
        \_______/                  \_______/
          P.M.                       P.M.
  \___________________________________________________/
                            2x

1st (+2nd?) guitar
eb|--------------------------------------------|
Bb|--------------------------------------------|
Gb|-5555555555555555-99999999-1212121212121212-|
Db|-5555555555555555-99999999-1212121212121212-|
Ab|-3333333333333333-77777777-1010101010101010-|
Eb|--------------------------------------------|


1st (+2nd?) guitar
eb|---------------------------------------------------|----|
Bb|---------------------------------------------------|----|
Gb|----------------5--2--7--------------------7--5--4-|----|
Db|-2-2-2-2-2-2-2--5--2--7-----2-2-2-2-2-2-2--7--5--4-|-2~-|
Ab|-2-2-2-2-2-2-2--3--0--5-----2-2-2-2-2-2-2--5--3--2-|-2~-|
Eb|-0-0-0-0-0-0-0--------------0-0-0-0-0-0-0----------|-0~-|
        \_______/                  \_______/
          P.M.                       P.M.
  \___________________________________________________/
                            2x


1st guitar
eb|------------------|-------------------------------...............
Bb|------------------|-------------------------------...............
Gb|--9-9---9-11--12--|-9-9-9-9-999999999999999999999-...............
Db|--9-9---9-11--12--|-9-9-9-9-999999999999999999999-...............
Ab|--7-7---7-9---10--|-7-7-7-7-777777777777777777777-...............
Eb|------------------|-------------------------------...............
     \____________/     
           6x                              

and finally some odd stuff which I wasn't able to hear out... 
play whatever you feel like :-P 
           
Добавлено: 17.06.2012
Другие материалы по этой песне:
  • Аккорды и текст

Страница создана 17.06.2012
http://primanota.ru/beatsteaks/schlecht-chords.htm
Привет, Гость.
Предлагаем пройти революционный курс по гитаре.
Подарок от PrimaNota.Ru, забирай!