PrimaNota.ru - самый крупный в мире бесплатный архив песенных текстов, аккордов, табулатур и нот


Beatsteaks - Soljanka - таба, видео

Регистрация Запомнить меня
Войти через:  Facebook Google Twitter Vk Yandex Mail.ru

Beatsteaks - Soljanka - таба, видео

Печатать
Просмотров: 119
Авторы музыки: Bernd Kurtzke, Torsten Scholz, Arnim Teutoburg-Weiß, Peter Baumann, Thomas Götz
Авторы текста: Bernd Kurtzke, Torsten Scholz, Arnim Teutoburg-Weiß, Peter Baumann, Thomas Götz
Beatsteaks - Soljanka

Album: Limbo Messiah
Instrument: Guitar
Tuning: Half Step Down

Tabbed By: Rolf Oslo


Intro

d#||--------------------------|
Bb||--------------------------|
F#||-9--7--4--2--9--7--11-12--|
C#||-x--x--x--x--x--x--x--x---|
G#||-7--5--2--0--7--5--9--10--|
D#||--------------------------| x2


Verse x2

d#||-----------------------|-----------------------------|
Bb||-----------------------|-----------------------------|
F#||--------------8--------|--------------------8--------|
C#||--------------9--------|--------------------9--------|
G#||--------------9--------|--------------------9--------|
D#||-0---2-3-5----7--------|-0---2-3-2---3--5---7--------|

d#||-------------------------------------|
Bb||-8-8-8-8-----------------------------|
F#||-9-9-9-9-9--9--9--9--8-8-8-8-8-8-8-8-|
C#||-9-9-9-9-10-10-10-10-9-9-9-9-9-9-9-9-|
G#||-7-7-7-7-10-10-10-10-9-9-9-9-9-9-9-9-|
D#||---------8--8--8--8--7-7-7-7-7-7-7-7-| x2



Chorus

d#||--------------------------|
Bb||--------------------------|
F#||-9--7--4--2--9--7--11-12--|
C#||-x--x--x--x--x--x--x--x---|
G#||-7--5--2--0--7--5--9--10--|
D#||--------------------------| x4



Verse

d#||-----------------------|-----------------------------|
Bb||-----------------------|-----------------------------|
F#||--------------8--------|--------------------8--------|
C#||--------------9--------|--------------------9--------|
G#||--------------9--------|--------------------9--------|
D#||-0---2-3-5----7--------|-0---2-3-2---3--5---7--------|

d#||------------------------|----------------------------|
Bb||------------------------|----------------------------|
F#||-----------------8------|-----------------8----------|
C#||-----------------9------|-----------------9----------|
G#||-----------------9------|-----------------9----------|
D#||-3---5-7-5---7-8-7------|-3---5-7-5---7-8-7----------|

d#||-------------------------------------|
Bb||-8-8-8-8-----------------------------|
F#||-9-9-9-9-9--9--9--9--8-8-8-8-8-8-8-8-|
C#||-9-9-9-9-10-10-10-10-9-9-9-9-9-9-9-9-|
G#||-7-7-7-7-10-10-10-10-9-9-9-9-9-9-9-9-|
D#||---------8--8--8--8--7-7-7-7-7-7-7-7-| x2


Acoutsic
d#||---------------|
Bb||-8-------------|
F#||-9---9----8----|
C#||-9---10---9----|
G#||-7---10---9----|
D#||-----8----7----| x2



Break

d#||---0---0---0---0---0---0---0---0---0---0---0---0---0---0---0---0-|
Bb||-3---3---3---3---2---2---2---2---1---1---1---1---------------0---|
F#||-------------------------------------------------1---1---2-------|
C#||-----------------------------------------------------------------|
G#||-----------------------------------------------------------------|
D#||-----------------------------------------------------------------|

then play G#

when the lyrics start play D#


Outro 

Guitar #1 
d#||---------------------------------|
Bb||---------------------------------|
F#||---------------------------------|
C#||-----2-----2---2-----2-----2---2-|
G#||-----2-----2---2-----2-----2---2-|
D#||-0-0-0-0-0-0-0-0-0-0-0-0-0-0-0-0-| x6
pm   * *   * *   *   * *   * *   *

d#||---------------------------------|
Bb||---------------------------------|
F#||---------------------4-----4---4-|
C#||-----3-----3---3-----4-----4---4-|
G#||-----3-----3---3-2-2-2-2-2-2-2-2-|
D#||-1-1-1-1-1-1-1-1-----------------|
pm   * *   * *   *   * *   * *   * 

Guitar #2
d#||-------------------------------------------------|
Bb||-------------------------------------------------|
F#||-19-19-19-19-19-19-19-19-18-18-18-18-18-18-18-18-|
C#||-x--x--x--x--x--x--x--x--x--x--x--x--x--x--x--x--|
G#||-17-17-17-17-17-17-17-17-16-16-16-16-16-16-16-16-|
D#||-------------------------------------------------|

d#||-------------------------------------------------|
Bb||-------------------------------------------------|
F#||-19-19-19-19-19-19-19-19-16-16-16-13-------------|
C#||-x--x--x--x--x--x--x--x--x--x--x--x--------------|
G#||-15-15-15-15-15-15-15-15-14-14-14-11-------------|
D#||-------------------------------------------------| x3

d#||-----------------------------------------|
Bb||-----------------------------------------|
F#||-10-10-10-10-10-10-10-10-4-4-4-4-4-4-4-4-|
C#||-x--x--x--x--x--x--x--x--4-4-4-4-4-4-4-4-|
G#||-8--8--8--8--8--8--8--8--2-2-2-2-2-2-2-2-|
D#||-----------------------------------------|


Acoustic
Guitar #1
d#||---0---0---0---0---0---0---0---0---0---0---0---0---0---0---0---0-|
Bb||-3---3---3---3---2---2---2---2---1---1---1---1---------------0---|
F#||-------------------------------------------------1---1---2-------|
C#||-----------------------------------------------------------------|
G#||-----------------------------------------------------------------|
D#||-----------------------------------------------------------------|

d#||---0---0---0---0---0---0---0---0---0---0---2---0-0---|
Bb||-3---3---3---3---2---2---2---2---1---1---1---1---0---|
F#||-------------------------------------------------1---|
C#||-------------------------------------------------2---|
G#||-------------------------------------------------2---|
D#||-------------------------------------------------0---|

Guitar #2 starts 2nd time
d#||---0---0---0---0---0---0---0---0---0---0---0---0-0---|
Bb||-------------------------------------------------0---|
F#||-1---1---2---4---4---1---------------------------1---|
C#||-------------------------4---2---------------0---2---|
G#||---------------------------------0---0---3-------2---|
D#||-------------------------------------------------0---|

Добавлено: 04.06.2012
Другие материалы по этой песне:
  • Аккорды и текст

Страница создана 04.06.2012
http://primanota.ru/beatsteaks/soljanka-chords.htm
Привет, Гость.
Предлагаем пройти революционный курс по гитаре.
Подарок от PrimaNota.Ru, забирай!