PrimaNota.ru - самый крупный в мире бесплатный архив песенных текстов, аккордов, табулатур и нот


Beatsteaks - Everything - текст песни, таба, видео

Регистрация Запомнить меня
Войти через:  Facebook Google Twitter Vk Yandex Mail.ru

Beatsteaks - Everything - текст песни, таба, видео

Печатать
Просмотров: 156
Авторы музыки: Bernd Kurtzke, Torsten Scholz, Arnim Teutoburg-Weiß, Peter Baumann, Thomas Götz
Авторы текста: Bernd Kurtzke, Torsten Scholz, Arnim Teutoburg-Weiß, Peter Baumann, Thomas Götz
Beatsteaks-Everything

Album: Smack-Smash

Tuning: standard

Intro  
|----------------------------------|-------------------------|
|----------------------------------|-------------------------|
|-11-11-11-------------------------|-9-9-9-------------------|
|-11-11-11-11-11-11-11-11-11-6-6-6-|-9-9-9-9-9-9-9-9-9-9-9-9-|
|--9--9--9-11-11-11-11-11-11-6-6-6-|-7-7-7-9-9-9-9-9-9-9-9-9-|
|-----------9--9--9--9--9--9-4-4-4-|-------7-7-7-7-7-7-7-7-7-|
        
Verse
|----------------------------|-------------------------|
|----------------------------|-------------------------|
|----------------9-9-9-------|-6-6-6-------------------|
|-11-11-11-6-6-6-9-9-9-9-9-9-|-6-6-6-6-6-6-6-6-6-6-6-6-|
|-11-11-11-6-6-6-7-7-7-9-9-9-|-4-4-4-6-6-6-6-6-6-6-6-6-|
|--9--9--9-4-4-4-------7-7-7-|-------4-4-4-4-4-4-4-4-4-|
        
|-------------------------|-------------------------------------|
|-------------------------|-------------------------------------|
|-------------9-9-9-------|-11-11-11----------------------------|
|-9-9-9-6-6-6-9-9-9-9-9-9-|-11-11-11-11-11-11-11-11-11-11-11-11-|
|-9-9-9-6-6-6-7-7-7-9-9-9-|--9--9--9-11-11-11-11-11-11-11-11-11-|
|-7-7-7-4-4-4-------7-7-7-|-----------9--9--9--9--9--9--9--9--9-|

|-------------------------------|-------------------------|
|-------------------------------|-------------------------|
|-11-11-11----------------------|-9-9-9-------------------|
|-11-11-11-11-11-11-6-6-6-6-6-6-|-9-9-9-9-9-9-9-9-9-9-9-9-|
|--9--9--9-11-11-11-6-6-6-6-6-6-|-7-7-7-9-9-9-9-9-9-9-9-9-|
|-----------9--9--9-4-4-4-4-4-4-|-------7-7-7-7-7-7-7-7-7-|

|-------------------------|-------------------------------------|
|-------------------------|-------------------------------------|
|-6-6-6-------9-9-9-------|-------------------------------------|
|-6-6-6-6-6-6-9-9-9-9-9-9-|-11-11-11-11-11-11-11-11-11----------|
|-4-4-4-6-6-6-7-7-7-9-9-9-|-11-11-11-11-11-11-11-11-11--scratch-|
|-------4-4-4-------7-7-7-|--9--9--9--9--9--9--9--9--9----------|

Chorus

|-----7---7---9------7----|-----7---7---9------7----|
|-------9---9------9---9--|-------9---9------9---9--|
|-------------------------|-------------------------|
|-------------------------|-------------------------|
|-------------------------|-------------------------|
|-------------------------|-------------------------|
|                         |                         |
|-------------------------|-------------------------|
|-------------------------|-------------------------|
|-6-6-6-6-6-6-6-6-6-6-6-6-|-------------------------|
|-6-6-6-6-6-6-6-6-6-6-6-6-|-2-2-2-2-2-2-2-2-2-2-2-2-|
|-4-4-4-4-4-4-4-4-4-4-4-4-|-2-2-2-2-2-2-2-2-2-2-2-2-|
|-------------------------|-0-0-0-0-0-0-0-0-0-0-0-0-|



|-----7---7---9------7----|-----7---7---7---7---7---|
|-------9---9------9---9--|-------9---9---9---9---9-|
|-------------------------|-------------------------|
|-------------------------|-------------------------|
|-------------------------|-------------------------|
|-------------------------|-------------------------|
|                         |                         |
|-------------------------|-------------------------|
|-------------------------|-------------------------|
|-6-6-6-6-6-6-6-6-6-6-6-6-|-------------------------|
|-6-6-6-6-6-6-6-6-6-6-6-6-|-4-4-4-4-4-4-4-4-4-4-4-4-|
|-4-4-4-4-4-4-4-4-4-4-4-4-|-4-4-4-4-4-4-4-4-4-4-4-4-|
|-------------------------|-2-2-2-2-2-2-2-2-2-2-2-2-|

|-----7---7---9------7----|-----7---7---9------7----|
|-------9---9------9---9--|-------9---9------9---9--|
|-------------------------|-------------------------|
|-------------------------|-------------------------|
|-------------------------|-------------------------|
|-------------------------|-------------------------|
|                         |                         |
|-------------------------|-------------------------|
|-------------------------|-------------------------|
|-6-6-6-6-6-6-6-6-6-6-6-6-|-9-9-9-9-9-9-9-9-9-9-9-9-|
|-6-6-6-6-6-6-6-6-6-6-6-6-|-9-9-9-9-9-9-9-9-9-9-9-9-|
|-4-4-4-4-4-4-4-4-4-4-4-4-|-7-7-7-7-7-7-7-7-7-7-7-7-|
|-------------------------|-------------------------|

|--9-7-9-7----7-9-7-9-7---|--9-7-9-7----7-9-7-9-7---|
|----------9------------9-|----------9------------9-|
|-------------------------|-------------------------|
|-------------------------|-------------------------|
|-------------------------|-------------------------|
|-------------------------|-------------------------|
|                         |                         |
|-------------------------|-------------------------|
|-7-7-7-7-7-7-7-7-7-7-7-7-|-7-7-7-7-7-7-7-7-7-7-7-7-|
|-6-6-6-6-6-6-6-6-6-6-6-6-|-6-6-6-6-6-6-6-6-6-6-6-6-|
|-4-4-4-4-4-4-4-4-4-4-4-4-|-4-4-4-4-4-4-4-4-4-4-4-4-|
|-------------------------|-------------------------|
|-------------------------|-------------------------|

Verse

|-------------------------|-------------------------|
|-------------------------|-------------------------|
|-------------9-9-9-------|-6-6-6-------------------|
|-6-6-6-6-6-6-9-9-9-9-9-9-|-6-6-6-6-6-6-6-6-6-6-6-6-|
|-6-6-6-6-6-6-7-7-7-9-9-9-|-4-4-4-6-6-6-6-6-6-6-6-6-|
|-4-4-4-4-4-4-------7-7-7-|-------4-4-4-4-4-4-4-4-4-|



|-------------------------|-------------------------------------|
|-------------------------|-------------------------------------|
|-------------9-9-9-------|-11-11-11----------------------------|
|-9-9-9-6-6-6-9-9-9-9-9-9-|-11-11-11-11-11-11-11-11-11-11-11-11-|
|-9-9-9-6-6-6-7-7-7-9-9-9-|--9--9--9-11-11-11-11-11-11-11-11-11-|
|-7-7-7-4-4-4-------7-7-7-|-----------9--9--9--9--9--9--9--9--9-|

|-------------------------------|-------------------------|
|-------------------------------|-------------------------|
|-11-11-11----------------------|-9-9-9-------------------|
|-11-11-11-11-11-11-6-6-6-6-6-6-|-9-9-9-9-9-9-9-9-9-9-9-9-|
|--9--9--9-11-11-11-6-6-6-6-6-6-|-7-7-7-9-9-9-9-9-9-9-9-9-|
|-----------9--9--9-4-4-4-4-4-4-|-------7-7-7-7-7-7-7-7-7-|

|-------------------------|-------------------------------------|
|-------------------------|-------------------------------------|
|-6-6-6-------9-9-9-------|-------------------------------------|
|-6-6-6-6-6-6-9-9-9-9-9-9-|-11-11-11-11-11-11-11-11-11----------|
|-4-4-4-6-6-6-7-7-7-9-9-9-|-11-11-11-11-11-11-11-11-11--scratch-|
|-------4-4-4-------7-7-7-|--9--9--9--9--9--9--9--9--9----------|

Chorus:

Solo

1. Part
|--------14-----------13------|----------11-------------|
|----(0)----------(0)---------|----(0)------------------|
|-13-13--------13-13----------|-13-13-------------------|
|-----------------------------|-------------------------|
|-----------------------------|-------------------------|
|-----------------------------|-------------------------| 

|--------14-----------13------|----------11-------------|
|----(0)----------(0)---------|-------------------------|
|-13-13--------13-13----------|-11-14-11----------------|
|-----------------------------|-------------------------|
|-----------------------------|-------------------------|
|-----------------------------|-------------------------|

|---------------------|-11-9--------------------|
|-12-11-9---------9---|------12-11-9---------9--|
|---------11-8-11-----|--------------11-8-11----|
|---------------------|-------------------------|
|---------------------|-------------------------|
|---------------------|-------------------------|
|
|---------------------|-------------------------|
|---------------------|-------------------------|
|-6--6--6-6-----------|-------------------------|
|-6--6--6-6-6--6-6--6-|--9-9--9--9-9--9--9---9--|
|-4--4--4-4-6--6-6--6-|--9-9--9--9-9--9--9---9--|
|-----------4--4-4--4-|--7-7--7--7-7--7--7---7--|  

|-----------------|-------------------------|
|-----------------|-------------------------|
|-----------------|-11-11-11-11-11-11-11-11-|
|-6-6-6-6-9-9-9-9-|-11-11-11-11-11-11-11-11-|
|-6-6-6-6-9-9-9-9-|--9--9--9--9--9--9--9--9-|
|-4-4-4-4-7-7-7-7-|-------------------------|

2. Part( not sure about this)
|-------0---------|-------0---------|-------0---------|
|---0---------0---|---4--------4----|---0---------0---|
|-1---1---------1-|-1---1--------1--|-1---1---------1-|
|-----------------|-----------------|-----------------|
|-----------------|-----------------|-----------------|
|-----------------|-----------------|-----------------|
|                 |                 |
|-----------------|-----------------|-----------------|
|-----------------|-----------------|-----------------|
|-6-6-6-6-6-6-6-6-|-----------------|-6-6-6-6-6-6-6-6-|
|-6-6-6-6-6-6-6-6-|-2-2-2-2-2-2-2-2-|-6-6-6-6-6-6-6-6-|
|-4-4-4-4-4-4-4-4-|-2-2-2-2-2-2-2-2-|-4-4-4-4-4-4-4-4-|
|-----------------|-0-0-0-0-0-0-0-0-|-----------------|

|-----------------|-------0---------|-------2---------|
|---------4-0-2-0-|---0---------0---|---4---------4---|
|---4-3-4---------|-1---1---------1-|-1---1---------1-|
|-4---------------|-----------------|-----------------|
|-----------------|-----------------|-----------------|
|-----------------|-----------------|-----------------|
|                 |                 |                 |
|-----------------|-----------------|-----------------|
|-----------------|-----------------|-----------------|
|-----------------|-6-6-6-6-6-6-6-6-|-9-9-9-9-9-9-9-9-|
|-4-4-4-4-4-4-4-4-|-6-6-6-6-6-6-6-6-|-9-9-9-9-9-9-9-9-|
|-4-4-4-4-4-4-4-4-|-4-4-4-4-4-4-4-4-|-7-7-7-7-7-7-7-7-|
|-2-2-2-2-2-2-2-2-|-----------------|-----------------|

|-----------------|-----------------|
|---------4-0-2-0-|---------4-0-2-0-|
|---4-3-4---------|---4-3-4---------|
|-4---------------|-4---------------|
|-----------------|-----------------|
|-----------------|-----------------|
|                 |                 |
|-----------------|-----------------|
|-7-7-7-7-7-7-7-7-|-7-7-7-7-7-7-7-7-|
|-6-6-6-6-6-6-6-6-|-6-6-6-6-6-6-6-6-|
|-4-4-4-4-4-4-4-4-|-4-4-4-4-4-4-4-4-|
|-----------------|-----------------|
|-----------------|-----------------|

Chorus:

Bass outro(4x)
                                     
|-----------------|--------------|
|-----------------|--------------| 
|--4------------4-|--------------| 
|--------4--7-----|-0------------|

Tabbed by Stedu

Lyrics:
need home
i need a shelter
i need a run
i need a push
a push up the wall
who's selling love
love for a lover
i'm a stranger
in one hand a gun
in one hand a fire

you come around
infecting through
carried away
caught up in you
aware of nothing
you break it down
you're wuite everything
quite everything

another day
walk down the alley
a fucked up alley
it always leads me
to your door
i needed bliss
not disappointment
just for a while
just for a day
just for a while
Добавлено: 05.05.2012
Другие материалы по этой песне:
  • Аккорды и текст

Страница создана 05.05.2012
http://primanota.ru/beatsteaks/everything-chords.htm
Привет, Гость.
Предлагаем пройти революционный курс по гитаре.
Подарок от PrimaNota.Ru, забирай!