PrimaNota.ru - самый крупный в мире бесплатный архив песенных текстов, аккордов, табулатур и нот


Beatsteaks - Disconnected - текст песни, таба, видео

Регистрация Запомнить меня
Войти через:  Facebook Google Twitter Vk Yandex Mail.ru

Beatsteaks - Disconnected - текст песни, таба, видео

Печатать
Просмотров: 139
Авторы музыки: Arnim Teutoburg-Weiß
Авторы текста: Bernd Kurtzke, Arnim Teutoburg-Weiß, Peter Baumann
----------------------------------------------------------------------------
                             DISCONNECTED - Beatsteaks
----------------------------------------------------------------------------

Tabbed by: Esmée

Tuning: standard

Drums intro

Intro:
e|-------------------------------|
B|-------------------------------|
G|-------------------------------|
D|----6-4-6-4---2-4-2-x----------|
A|-4---------------------0-0-0-0-|
E|-------------------------------| 2x

e|-------------------------------|
B|-------------------------------|
G|-------------------------------|
D|----6-4-6-4---2-4-2-x---2-4-2--|
A|-4--------------------0--------|
E|-------------------------------| 

e|-------------------------------|
B|-------------------------------|
G|-------------------------------|
D|----6-4-6-4----2~--------------|
A|-4-----------4-----------------|
E|-------------------------------| 

Verse:
e|-------------------------------|
B|-------------------------------|
G|-------------------------------|
D|----6-4-6-4---2-4-2-x----------|
A|-4---------------------0-0-0-0-|
E|-------------------------------| 7x
So lost..

e|-----------------------------------------------------------|
B|-----------------------------------------------------------|
G|-----------------------------------------------------------|
D|----6-4-6-4---2-4-2-2-2--2-2-2-2--2-2-2-2--4-2-------------|
A|-4---------------------------------------------x-0--0-0-0--|
E|-----------------------------------------------------------|

Chorus
Is this world disconnected..

Verse:
e|-------------------------------|
B|-------------------------------|
G|-------------------------------|
D|----6-4-6-4---2-4-2-x----------|
A|-4---------------------0-0-0-0-|
E|-------------------------------|  3x
Like you..

e|----------------------------------|
B|----------------------------------|
G|----------------------------------|
D|----6-4-6-4----2-2-2-2-2--4-2-----|
A|-4----------------------------x-0-|
E|----------------------------------|

Chorus
Is this world disconnected...

Is this world, is this world..

Distorted guitar part:
e|---------------------------------|
B|---------------------------------|
G|---------------------------------|
D|---6~----6---4~----2---1h2-1-----|
A|-4-----4---4-----4---4-------4~--|
E|---------------------------------| 2x

e|---------------------------------|
B|---------------------------------|
G|---------------------------------|
D|---6~----6---4~----2----1-x-2----|
A|-4-----4---4-----4---4--------4~-|
E|---------------------------------|

e|---------------------------------|
B|---------------------------------|
G|---------------------------------|
D|---6~----6---4~----2---1h2-1-----|
A|-4-----4---4-----4---4-------4~--|
E|---------------------------------| 2x

e|---------------------------------|
B|---------------------------------|
G|---------------------------------|
D|---6~----6---4~----2---1h2-1-----|
A|-4-----4---4-----4---4-------4~--|
E|---------------------------------| 2x

Outro (distorted)
e|-------------------------------|
B|-------------------------------|
G|-------------------------------|
D|----6-4-6-4---2-4-2-x----------|
A|-4---------------------0-0-0-0-|
E|-------------------------------| 4x
This is my disconnected world..

e|---------|
B|---------|
G|---------|
D|-6~------|
A|-----0---|
E|---------| 3x

Добавлено: 25.05.2012
Другие материалы по этой песне:
  • Аккорды и текст

Страница создана 25.05.2012
http://primanota.ru/beatsteaks/disconnected-chords.htm
Привет, Гость.
Предлагаем пройти революционный курс по гитаре.
Подарок от PrimaNota.Ru, забирай!