PrimaNota.ru - самый крупный в мире бесплатный архив песенных текстов, аккордов, табулатур и нот


Beatsteaks - E-g-o - таба, видео

Регистрация Запомнить меня
Войти через:  Facebook Google Twitter Vk Yandex Mail.ru

Beatsteaks - E-g-o - таба, видео

Печатать
Просмотров: 184
Авторы музыки: Bernd Kurtzke, Torsten Scholz, Arnim Teutoburg-Weiß, Peter Baumann, Thomas Götz
Авторы текста: Bernd Kurtzke, Torsten Scholz, Arnim Teutoburg-Weiß, Peter Baumann, Thomas Götz
E-G-O Tab by Felle:
-------------------

Artist:BEATSTEAKS
Song:E-G-O
Album:.Limbo Messiah
Tuning:EADGBE

This is a tab from track 11 from the new BEATSTEAKS-Album .Limbo Messiah.
I'm already trying to tab out the bridge and the solo.

05/06/07..Fixed some parts of it..(sliding,x2 Am&Dm)
05/11/07..Added the solo
05/13/07..Added the first Bridge
01/11/08..Added Bridge 2 and Intro

This is ,Verse,Chorus and Outo:

First guitar:

Am(Barre),F(Barre)x2, then G(Barre),E

2nd Guitar:

E-------------------------------------|
B-------------------------------------|
G-------------------------------------|
D-------------------------------------|
A---7---7---7---7---7---7---7---7-----|
E-0---0---0---0---0---0---0---0-------|

*=only for Outro..Last Note(let Ring!!)

2nd Guitar:

E--8--8---7-5-7-5-5-------------3-5-7--3-5-7--3-5-3--/4-5-7--4-5-7--5-4------|
B--10-10--8-8-8-8-8-------------3-3-3--3-3-3--3-3-3--/5-5-5--5-5-5--5-5------|
G--9--8---7-7-7-7-7--x2-then----4-4-4--4-4-4--4-4-4--/4-4-4--4-4-4--4-4------|
D----------------------------------------------------------------------------|
A-----------------------------------------------------------------------(0---|
E----------------------------------------------------------------------------|

And here's the first bridge(figure out the timing by yourselves):

Feed my E-G-O,watch it grow and grow.....

E--5----8-------------5---3---4-------------|
B--6----10---x2,then--6---3---5-------------|
G--5----9-------------5---4---4-------------|
D-------------------------------------------|
A-------------------------------------------|
E-------------------------------------------|

Bridge2:

Bridge
Guitar 1:
--------------------------------------------------------------------|
--------------------------------------------------------------------|
--------------------------------------------------------------------|
-------------------0---------------------0--------------------------|
--0-----0---------------0-----0-------------------------------------|
-----------1----0----------------1----0---------3--------3---5---3--|

Guitar 2:
E----------------------------------------------------------------------|
B----------------------------------------------------------------------|
G----------------------------------------------------------------------|
D-------------------0---------------------0--------5----------5---5----|
A--0-----0---------------0-----0-------2-------------------------------|
E-----------1----0----------------1--------------3----3----------------|


E------------------------------------|
B------------------------------------|
G------------------------------------|
D----2---2---2---2---2---2----2---2--|
A------------------------------------|
E--0---0---0---0---0---0----0---0----|

E---------------------0--------------|
B-------------------------3---1---0--|
G------------------------------------|
D---6---6-----------2---2---2---2----|
A------------------------------------|
E-4---4---4---4----------------------|


Now there comes the solo....
The solo is not so difficult but it includes many effects...my personal opinion is FLG 
Full-Gain...


here it is:
E-5--7-8------------5--7-8--11/12--12/17-\15-\13----------------|
B---------5-------------------------------------17-\15-\13------|
G-----------7-5-------------------------------------------------|
D---------------7-----------------------------------------------|
A---------------------------------------------------------------|
E---------------------------------------------------------------|

E-------------------------------------------|
B-12-13-15-13-12-13-12-10-9-10-\6\5-3-1-0---|
G----------------------------------------2/-|
D-------------------------------------------|
A-------------------------------------------|
E-------------------------------------------|


So....Please Rate

Updated will be soon
Добавлено: 10.07.2012
Другие материалы по этой песне:
  • Аккорды и текст

Страница создана 08.03.2012
http://primanota.ru/beatsteaks/e-g-o-chords.htm
Привет, Гость.
Предлагаем пройти революционный курс по гитаре.
Подарок от PrimaNota.Ru, забирай!