PrimaNota.ru - самый крупный в мире бесплатный архив песенных текстов, аккордов, табулатур и нот


Bass Drum Of Death - Smell The Night - таба, видео

Регистрация Запомнить меня
Войти через:  Facebook Google Twitter Vk Yandex Mail.ru

Bass Drum Of Death - Smell The Night - таба, видео

Печатать
Просмотров: 144
Great song from the Sunset Overdrive OST, better of their new stuff.

Intro/Verse/Post-Chorus
e|-------------------|
B|-------------------|
G|-------(7-7777777--|
D|9-9-999------------|
A|9-9-999-5-5555555--|
E|7-7-777------------|

Chorus
e|------------------------------------|
B|7-7-777-----------9-9-999-----------|
G|7-7-777-6-66-6666-9-9-999-8-88-8888-|
D|7-7-777-7-77-7777-9-9-999-9-99-9999-|
A|5-5-555-7-77-7777-7-7-777-9-99-9999-|
E|--------5-55-5555---------7-77-7777-|

e|------------------------------------|
B|7-7-777-----------9-9-999-----------|
G|7-7-777-6-66-6666-9-9-999-8-88-8888-|
D|7-7-777-7-77-7777-9-9-999-9-99-9999-|
A|5-5-555-7-77-7777-7-7-777-9-99-9999-|
E|--------5-55-5555---------7-77-7777-|

e|------------------------------------|
B|7-7-777-----------9-9-999-----------|
G|7-7-777-6-66-6666-9-9-999-8-88-8888-|
D|7-7-777-7-77-7777-9-9-999-9-99-9999-|
A|5-5-555-7-77-7777-7-7-777-9-99-9999-|
E|--------5-55-5555---------7-77-7777-|
  D D DDD A AA AAAA E E EEE B BB BBBB

e|----------------------------------------------------|
B|7-7-777---------------------------------------------|
G|7-7-777-6-66-6666----------3b-3b------------3b-3b---|
D|7-7-777-7-77-7777-4-4-444-4-44-4-4-4-4-444-4-44-4-4-|
A|5-5-555-7-77-7777-4-4-444-4-44-4-4-4-4-444-4-44-4-4-|
E|--------5-55-5555-2-2-222-2-22-2-2-2-2-222-2-22-2-2-|
  D D DDD A AA AAAA F#->

Post-Chorus (Leads)

Rhythm
e|----------------------|
B|----------------------|
G|--------7-------------|
D|9-9-999----9-7--------|
A|9-9-999-5-----9-7-----|
E|7-7-777----------10-7-|

Lead
e|------7----------7-10-|
B|---------------10-----|
G|9-9b11-11b9-7-9-------|
D|----------------------|
A|----------------------|
E|----------------------|

BASS:

Verse/Post/Chorus:
G|--------------------|
D|----------------7-9-|
A|--------5-55-5-7----|
E|7-7-777-------------|

Chorus:
G|------------------------------------    G|-----------------------------------------------------|
D|------------------------------------    D|-----------------------------------4-4-444-4-44-4-4--|
A|5-5-555-----------7-7-777-----------    A|5-5-555----------------------------------------------|
E|--------5-55-5555---------7-77-7777- x3 E|--------5-55-5555-2-2-222-2-22-2-2-------------------|
Добавлено: 14.06.2015
Другие материалы по этой песне:
  • Аккорды и текст

Страница создана 14.06.2015
http://primanota.ru/bass-drum-of-death/smell-night-chords.htm
Привет, Гость.
Предлагаем пройти революционный курс по гитаре.
Подарок от PrimaNota.Ru, забирай!