PrimaNota.ru - самый крупный в мире бесплатный архив песенных текстов, аккордов, табулатур и нот


August Burns Red - Everlasting Ending - таба, видео

Регистрация Запомнить меня
Войти через:  Facebook Google Twitter Vk Yandex Mail.ru

August Burns Red - Everlasting Ending - таба, видео

Печатать
Просмотров: 135
[Everlasting Ending]
[August Burns Red]
[Found In Far Away Places]

Tuning: B Gb B E Ab Db
joshuaoliveira@hotmail.com

[Riff 1a] - [00:00] - [00:19--------------------------------------| - [x2]
- -----------------4-------5--------------------------------------|
- -7~-----------------7----------2~--------------5~---------------|
- -6~--------------------6-------2~--------------4~---------------|
- -4~----------------------------0~--------------2~---------------|
- -4~----------------------------0~--------------2~---------------|
- -4~----------------------------0~--------------2~---------------|

[Riff 1b] - [00:07] - [00:19]
- ------------------------------------------------------------------------------------|
- -/10--9--7-----------------------------------------------------------------------10-|
- -----------9v----------------------------------------------------9\6-------4/6-9----|
- -----------------------4-4---------------6-6---7-7---------6h7-------7p4------------|
- -----------------------------7---4---5-----------------4h5---------------7----------|
- -------------------4-4-----4---4---4---4-----4-----4-4---------4--------------------|
PM                   ...     .   .   .   .     .     ...         .

- -9h12p9----------------------------10------------|
- --------10---------------14----14------14--------|
- -----------9----9/11v-------11-------------------|
- -------------11----------------------------------|
- -------------------------------------------------|
- -------------------------------------------------|

[Riff 2] - [00:19] - [00:38]
- ------------------------------------------------------------------|
- ---------------------------------------------------------------10-|
- -----------------------------------------------9\6-------4/6-9----|
- -----4-4---------------6-6---7-7---------6h7-------7p4------------|
- -----------7---4---5-----------------4h5---------------7----------|
- -4-4-----4---4---4---4-----4-----4-4---------4--------------------|
PM ...     .   .   .   .     .     ...         .

- ------------------------------------------------------------------|
- ---------------------2br--------------------------------------5h7-|
- ---------2---------2-------2-------------2-----6br----------6-----|
- -----2h4---4---2h4-----------2h4-----2h4---4/7--------7-4-7-------|
- ------------------------------------------------------------------|
- -0-0---------0-------------------0-0------------------------------|
PM ...         .                   ...                    .

- ------------------------------------------------------------------|
- ---------------------------------------------------------------10-|
- -----------------------------------------------9\6-------4/6-9----|
- -----4-4---------------6-6---7-7---------6h7-------7p4------------|
- -----------7---4---5-----------------4h5---------------7----------|
- -4-4-----4---4---4---4-----4-----4-4---------4--------------------|
PM ...     .   .   .   .     .     ...         .

- ------------------------------------------------------------------|
- ---------------------2br------------------------------------------|
- ---------2---------2-------2-------------2-----6br----------4-----|
- -----2h4---4---2h4-----------2h4-----2h4---4/7----------4---------|
- ------------------------------------------------------7---7---4h5-|
- -0-0---------0-------------------0-0------------------------------|
PM ...         .                   ...                  .   .

[Riff 3] - [00:38] - [00:58]
- ---------------------------------------------------------|
- -------------------2-2-2-2-----2-2-2-2-----2-2-2-2-------|
- -------------------2-2-2-2-----2-2-2-2-----2-2-2-2-------|
- -------------0-----0-0-0-0-----0-0-0-0-----0-0-0-0-------|
- -0-0-0---4---0-0-0---------0-0---------000---------0-0-0-|
- -2/4-4-7---7-0-0-0---------0-0---------000---------0-0-0-|
PM               ...         ...         ...         .....

- ---------------------------------------------------------|
- -------------------2-2-2-2-----2-2-2-2-------------------|
- -------------------2-2-2-2-----2-2-2-2-----9p6-----------|
- -------------0-----0-0-0-0-----0-0-0-0---------7---------|
- -0-0-0---4---0-0-0---------0-0---------000-------9p0h4/5-|
- -2/4-4-7---7-0-0-0---------0-0---------000---------------|
PM               ...         ...         ...

- ---------------------------------------------------------|
- -------------------2-2-2-2-----2-2-2-2-----2-2-2---------|
- -------------------2-2-2-2-----2-2-2-2-----2-2-2---------|
- -------------0-----0-0-0-0-----0-0-0-0-----0-0-0---------|
- -0-0-0---4---0-0-0---------0-0---------000-------000-----|
- -2/4-4-7---7-0-0-0---------0-0---------000-------000-4\2-|
PM               ...         ...         ...       ...

- -------------------------------------------------------------------------|
- -------------------2-2-2-2-----2-2-2-2-----2-2-2-2-----------------------|
- -------------------2-2-2-2-----2-2-2-2-----2-2-2-2-----------------------|
- -------------0-----0-0-0-0-----0-0-0-0-----0-0-0-0-----------------------|
- -0-0-0---4---0-0-0---------0-0---------000---------0-0-0-0-0-0-0-0-4-4-0-|
- -2/4-4-7---7-0-0-0---------0-0---------000---------0-0-0-2/4-4-4-0-7-7-0-|
PM               ...         ...         ...         .....         .     .

[Riff 4a] - [00:58] - [01:19]
- -------------------------------------------------------------------------------|
- -2---------------5---------------2---------------5-------10--------------------|
- -2---------------6---------------2---------------6-------9---------------------|
- -0---------------4---------------0---------------4-------7-----9---------9-9\--|
- -0---------------4---------------0---------------4-------7-----9-9-9-9-9-9-9\--|
- -0(x32)----------4(x32)----------0(x32)----------4(x16)--7(x8)-9-9-9-9-9-9-9\--|
PM                                                                 .......

[Riff 4b, Guitar 1 & 2] - [00:58] - [01:21]
- -9----------12-9----9-----------------------9----------12-9----9-----------------------|
- ---10----10------10------10-------------------10----10------10------10--------------10-|
- ------11--------------11----9-11----11-----------11--------------11----9-11----11-9----|
- ---------------------------------11----9------------------------------------11---------|
- -----------------------------------------12--------------------------------------------|
- ---------------------------------------------------------------------------------------|

- -9----------12-9----9-----------------------9----------12-9----9---------------9/17p14-------------|
- ---10----10------10------10-------------------10----10------10-----------10h12---------15p14-------|
- ------11--------------11----9-11----11-----------11-----------------9h11---------------------16p14-|
- ---------------------------------11----9-------------------------11--------------------------------|
- -----------------------------------------12--------------------------------------------------------|
- ---------------------------------------------------------------------------------------------------|


- -----------------------------------------14h17-19br--17-16-----------------------------|
- ---------------------17---14----------14---------------------19---17---15--------------|
- ----------14---14-13---------14----14-------------------------------------18v----------|
- -16p14h16-----------------------16-----------------------------------------------------|
- ---------------------------------------------------------------------------------------|
- ---------------------------------------------------------------------------------------|
PM                                ........
- --------------------------------------------14-16br--14--------------------------------|
- -----------------------------------------14-------------17---15---14-------------------|
- --------------------------------------14-------------------------------16-14v----------|
- -----------------------------------16--------------------------------------------------|
- --------------------------------16-----------------------------------------------------|
- ---------------------------------------------------------------------------------------|
PM                                ........


- -9----------12-9----9-----------------------9----------12-9----9-------------12-14/17-21-17v-------|
- ---10----10------10------10-------------------10----10------10------10-12/14-----------------------|
- ------11--------------11----9-11----11-----------11--------------11--------------------------------|
- ---------------------------------11----9-----------------------------------------------------------|
- -----------------------------------------12--------------------------------------------------------|
- ---------------------------------------------------------------------------------------------------|
PM                                                                 ..
- --------------------------------------------5----------9--5----5-------------9--10/14-17-14v-------|
- ----------------------------------------------7-----7-------7-------7--9/10------------------------|
- -------------------------------------------------6---------------6---------------------------------|
- ---------------------------------------------------------------------------------------------------|
- ---------------------------------------------------------------------------------------------------|
- ---------------------------------------------------------------------------------------------------|
PM                                                                 .


[Riff 5, Guitar 1 & 2] - [01:19] - [01:35]
- -------------------------------------------------------------------------------------------------|
- ---------------------------------------------------------------------------------------2h3p2-----|
- -2-------------2---------2-------------2-------6p2-------------2---------2-------------------4p2-|
- -----4---2h4-------2h4-------4---2h4-------2h4-------4---2h4-------2h4-------4---2h4-------------|
- -------------------------------------------------------------------------------------------------|
- ---0---0-----0---0-----0---0---0-----0---0---------4---4-----4---4-----4---4---4-----4-----------|
PM   .   .     .   .     .   .   .     .   .         .   .     .   .     .   .   .     .
- ---------------------------------------------------------------------------------------0h2p0-----|
- ---------------------------------------------------------------------------------------------3p2-|
- -2-------------2---------2-------------2-------6p2-------------2---------2-----------------------|
- -----4---2h4-------2h4-------4---2h4-------2h4-------4---2h4-------2h4-------4---2h4-------------|
- -------------------------------------------------------------------------------------------------|
- ---0---0-----0---0-----0---0---0-----0---0---------4---4-----4---4-----4---4---4-----4-----------|
PM   .   .     .   .     .   .   .     .   .         .   .     .   .     .   .   .     .


- ---------------------------------------------------------------------------------------------------------|
- ---------------------------------------------------------------------------------------2h3p2-------------|
- -2-------------2---------2-------------2-------6p2-------------2---------2-------------------4p2-------2-|
- -----4---2h4-------2h4-------4---2h4-------2h4-------4---2h4-------2h4-------4---2h4-------------4h2p4---|
- ---------------------------------------------------------------------------------------------------------|
- ---0---0-----0---0-----0---0---0-----0---0---------4---4-----4---4-----4---4---4-----4-------------------|
PM   .   .     .   .     .   .   .     .   .         .   .     .   .     .   .   .     .
- ---------------------------------------------------------------------------------------0h2p0-------------|
- ---------------------------------------------------------------------------------------------3p2-------2-|
- -2-------------2---------2-------------2-------6p2-------------2---------2-----------------------2p1h2---|
- -----4---2h4-------2h4-------4---2h4-------2h4-------4---2h4-------2h4-------4---2h4---------------------|
- ---------------------------------------------------------------------------------------------------------|
- ---0---0-----0---0-----0---0---0-----0---0---------4---4-----4---4-----4---4---4-----4-------------------|
PM   .   .     .   .     .   .   .     .   .         .   .     .   .     .   .   .     .


- -------------------------------------------------|
- -------------------------------------------------|
- -2-------------2---------2-------------2-------6-|
- -----4---2h4-------2h4-------4---2h4-------2h4---|
- ---------------------------0---0-----0---0-------|
- ---4---4-----4---4-----4-------------------------|
PM   .   .     .   .     .   .   .     .   .
- -------------------------------------------------|
- -------------------------------------------------|
- -2-------------2---------6-------------6-------9-|
- -----4---2h4-------2h4-------7---6h7-------6h7---|
- ---------------------------0---0-----0---0-------|
- ---4---4-----4---4-----4-------------------------|
PM   .   .     .   .     .   .   .     .   .


[Riff 6a] - [01:35] - [01:42]
- --------------------------------------------12h14p12-10--------------|
- --------------------------------------------------------14-9h10------|
- ----------------------------------------------------------------9h11-|
- ---------------------------------------------------------------------|
- -0000-0-0--00-0000-0-00-00000-0000-0000-0000-------------------------|
- -0000-0-0--00-0000-0-00-00000-0000-0000-0000-------------------------|
PM ...........................................

[Riff 6b] - [01:35] - [01:42]
- -5-------------5---------5-------------5-------9p5-------------5---------5------------9h10p9-7------------|
- -----7---5h7-------5h7-------7---5h7-------5h7-------7---5h7-------5h7-------7---5h7-----------10-5h7-----|
- ------------------------------------------------------------------------------------------------------6h7-|
- ---0---0-----0---0-----0---0---0-----0---0---------0---0-----0---0-----0---0---0-----0--------------------|
- ----------------------------------------------------------------------------------------------------------|
- ----------------------------------------------------------------------------------------------------------|
PM   .   .     .   .     .   .   .     .   .         .   .     .   .     .   .   .     .

[Riff 7, Guitar 1 & 2] - [01:42] - [01:46]
- -------------------------------------------------|
- -------------------------------------------------|
- -2-------------2---------6-------------6-------6-|
- -----4---2h4-------2h4-------7---6h7-------2h4---|
- ---------------------------0---0-----0---0-------|
- ---4---4-----4---4-----4-------------------------|
PM   .   .     .   .     .   .   .     .   .
- -------------------------------------------------|
- -------------------------5-------------5---------|
- -6-------------6-------------6---4h6-----------9-|
- -----7---6h7-------6h7---------------------6h7---|
- ---------------------------0---0-----0---0-------|
- ---4---4-----4---4-----4-------------------------|
PM   .   .     .   .     .   .   .     .   .


[Riff 8a] - [01:46] - [02:04]
- -----------------------------------------------------------------|
- -----------------------------------------------------------------|
- -----------------------------------------------------------------|
- -----------0---0---------------------------0---0-----------------|
- -0-0-0-0-0-0---0---------------000-0-0-0-0-0---0-----------------|
- -0-0-0-0-0-0---0---------------000-0-0-0-0-0---0-----------------|
PM .........                     ...........

- -----------------------------------------------------------------|
- -----------------------------------------------------------------|
- ---------------------------------------------------------6-------|
- -----------4---4---------------------------7---7-------7---7-6---|
- -4-4-4-4-4-4---4---------------447-7-7-7-7-7---7---------------7-|
- -4-4-4-4-4-4---4---------------447-7-7-7-7-7---7-----------------|
PM .........                     ...........             .

[Riff 9b, Guitar 1 & 2] - [01:46] - [02:04]
   T            T     T     T     T
- --------------------------------14p5---------|
- --------------------------14p7--------h7h9p5-|
- -14p7p6h7p6---16p7--14p7---------------------|
- ---------------------------------------------|
- ---------------------------------------------|
- ---------------------------------------------|
-
-  T            T     T     T     T
- --------------------------------17p9---------|
- --------------------------17p10-----h10h12p9-|
- -18p11p9h11p9-19p11-18p11--------------------|
- ---------------------------------------------|
- ---------------------------------------------|
- ---------------------------------------------|


[Riff 10a] - [02:04] - [02:23]
- -----------------------------------------------------------------|
- -------------2~--------------------------------------------------|
- -------------2~--------------------------------------------------|
- -0~----------0~--------------------------------------------------|
- -0~----------0~--------------------------------0-4---0-0-0-0-0-0-|
- -0~----------0~--------------------------------0-7---0-0-2/4-4-4-|
PM                                               .     ...

- -----------------------------------------------------------------|
- -------------2~--------------------------------------------------|
- -------------2~--------------------------------------------------|
- -0~----------0~--------------------------------------------------|
- -0~------0---0~------------------------------0-0-0-0-0-0---4---0-|
- -0~------0---0~------------------------------0-0-2/4-4-4---7---0-|
PM         .                                   ...               .

- -----------------------------------------------------------------|
- -------------2~--------------------------------------------------|
- -------------2~--------------------------------------------------|
- -0~----------0~--------------------------------------------------|
- -0~------0---0~--------------------------------0-4---0-0-0-0-0-0-|
- -0~------0---0~--------------------------------0-7---0-0-2/4-4-4-|
PM         .                                     .     ...

- -----------------------------------------------------------------|
- -------------2~------------------2---2---2---2-------------------|
- -------------2~------------------2---2---2---2-------------------|
- -0~----------0~------------------0---0---0---0-----------------0-|
- -0~--0---0---0~------------------0---0---0---0---7-7-5-5-4-----0-|
- -0~--0---0---0~------------------0---0---0---0-------------7-4-0-|
PM     .....

[Riff 10b, Guitar 1 & 2] - [02:04] - [02:23]
- -------------9v-----------------------------12-9----9-------------|
- -7v----------------------------------------------10---------------|
- ------------------------------------------------------9h11p9----9-|
- -------------------------------------------------------------11---|
- ------------------------------------------------------------------|
- ------------------------------------------------------------------|
-
- -------------12v--------------------------------------------------|
- -10v--------------------------------------------------------------|
- ------------------------------------------------------------------|
- ------------------------------------------------------------------|
- ------------------------------------------------------------------|
- ------------------------------------------------------------------|


- ------------------------------------------------------------------|
- ------------------------------------------------------------------|
- ------------------------------------------------------------------|
- ----------------------------------------------/7v-------------\---|
- -12----\------/9-----7-------4br----------------------------------|
- ------------------------------------------------------------------|

- ------------------------------------------------------------------|
- ------------------------------------------------------------------|
- -----------------------------6br-------------6/9-9---9/11-11--\---|
- --/4-7---4----/9-----7--------------------------------------------|
- ------------------------------------------------------------------|
- ------------------------------------------------------------------|
PM         .

- -------------12~-------------12--12--12--12--12-------------------|
- ------10~----------------10------10--10--10--10-------------------|
- -/11-~---------------11----------11--11--11--11-------------------|
- ------------------------------------------------------------------|
- ------------------------------------------------------------------|
- ------------------------------------------------------------------|

clean

[Riff 11a, Guitar 1 & 2] - [02:23] - [03:02]
- -----------------------------------------------------------------|
- -5~--------------------------------------------------------------|
- -6~--------------------------------------------------------------|
- -4~--------------------------------------------------------------|
- -4~--------------------------------------------------------------|
- -4~--------------------------------------------------------------|
-
- -----------------------------------------------------------------|
- -----------------------------------------------------7-----------|
- ----------------------------------------------------------6------|
- -----------------------------------------------------------------|
- -----------------------------------------------------------------|
- -----------------------------------------------------------------|


- -----------------------------------------------------------------|
- -2~--------------------------------------------------------------|
- -2~--------------------------------------------------------------|
- -0~--------------------------------------------------------------|
- -0~--------------------------------------------------------------|
- -0~--------------------------------------------------------------|
-
- ---------------------0-------------------------------------------|
- -----------------------------------------------------------------|
- -7b----------------------7r--6v----------------------------------| hold bend on 7th fret until release
- -------------7---------------------------7/9-----7---------------|
- -----------------------------------------------------------------|
- -----------------------------------------------------------------|


- -----------------------------------------------------------------|
- -5~--------------------------------------------------------------|
- -6~--------------------------------------------------------------|
- -4~--------------------------------------------------------------|
- -4~--------------------------------------------------------------|
- -4~--------------------------------------------------------------|
-
- -----------------------------------------------------------------|
- ---------------------------------5-------------------7-----------|
- ---------------------------------4h6---4-------------------6-----|
- ---------------------------------------------7-------------------|
- -----------------------------------------------------------------|
- -----------------------------------------------------------------|


- -----------------------------------------------------------------|
- -2~--------------------------------------------------------------|
- -2~--------------------------------------------------------------|
- -0~--------------------------------------------------------------|
- -0~--------------------------------------------------------------|
- -0~--------------------------------------------------------------|
-
- ---------------------0-----------9-------------------------------|
- ----------------------------/10--------10----10------------------|
- -7b--------------------------------------------------------------|
- -------------7---------------------------------------------------|
- -----------------------------------------------------------------|
- -----------------------------------------------------------------|


- -----------------------------------------------------------------|
- -5~--------------------------------------------------------------|
- -6~--------------------------------------------------------------|
- -4~--------------------------------------------------------------|
- -4~--------------------------------------------------------------|
- -4~--------------------------------------------------------------|
-
- -----------------5-----------------------------------------------|
- -5---------------5---------------5---------------x-x-------------|
- -4h6---6-------------------------4h6---6---------x-x---9---6-----|
- -----------7-------------------------------7-----x-x---9---7-----|
- -----------------------------------------------------------------|
- -----------------------------------------------------------------|


- -9---------------7------5-----------7/9---7-----5----------------|
- -10--------------10-----5------h7---x-x---x-----x----------------|
- -7---------------9------7-----------7/9---7-----6----------------|
- -----------------------------------------------------------------|
- -----------------------------------------------------------------|
- -----------------------------------------------------------------|
-
- -----------------------------------------------------------------|
- -----------------------------------------------------------------|
- -6~--------------------------------------------------------------|
- -7~--------------------------------------------------------------|
- -9~--------------------------------------------------------------|
- -----------------------------------------------------------------|


- -----------------------------------------------------------------|
- -5~--------------------------------------------------------------|
- -6~--------------------------------------------------------------|
- -4~--------------------------------------------------------------|
- -4~--------------------------------------------------------------|
- -4~--------------------------------------------------------------|
-
- -----------------5-----------------------------------------------|
- -5---------------5---------------5---------------x-x-------------|
- -4h6---6-------------------------4h6---6---------x-x---9---6-----|
- -----------7-------------------------------7-----x-x---9---7-----|
- -----------------------------------------------------------------|
- -----------------------------------------------------------------|


- -9---------------7------5-----------7/9---7-----5----------------|
- -10--------------10-----5------h7---x-x---x-----x----------------|
- -7---------------9------7-----------7/9---7-----6----------------|
- -----------------------------------------------------------------|
- -----------------------------------------------------------------|
- -----------------------------------------------------------------|
-
- -------------------------------------------------------------------------|
- -------------------------------------------------------------------------|
- -6~----------7p6h7p6-9~--------------------------------------------------|
- -7~------------------------------------------------0-0-0-0-0-0-0---------|
- -9~------------------------------0-0-0-0-0-0-0-0-0-0-0-0-0-0-0-0---------|
- ---------------------------------0-0-0-0-0-0-0-0-0-0-0-0-0-0-0-0- <---| distortion
PM                                 .................

[Riff 11b] - [02:23] - [03:02---------------------------------------| - [x2]
- -17(x192)-------------------------17(x12)----------------17(x12)--|
- -------------------14(x12)-15(x8)---------14(x12)-15(x8)----------|
- ------------------------------------------------------------------|
- ------------------------------------------------------------------|
- ------------------------------------------------------------------|
- ------------------------------------------------------------------|

[Riff 12a] - [03:02] - [03:22]
- -----------------------------------------------------------------|
- -5-5-5-5-5-5-5-5-5-5-5-5-5-5-5-5-5-5-5-5-5-5-5-5-5-5-5-5-5-5-5-5-|
- -6-6-6-6-6-6-6-6-6-6-6-6-6-6-6-6-6-6-6-6-6-6-6-6-6-6-6-6-6-6-6-6-|
- -4-4-4-4-4-4-4-4-4-4-4-4-4-4-4-4-4-4-4-4-4-4-4-4-4-4-4-4-4-4-4-4-|
- -4-4-4-4-4-4-4-4-4-4-4-4-4-4-4-4-4-4-4-4-4-4-4-4-4-4-4-4-4-4-4-4-|
- -4-4-4-4-4-4-4-4-4-4-4-4-4-4-4-4-4-4-4-4-4-4-4-4-4-4-4-4-4-4-4-4-|

- -----------------------------------------------------------------|
- -------------2-----2-2-2-2-2-----------------2-----2-2-2-2-2-----|
- -------2-----2-----2-2-2-2-2-----------2-----2-----2-2-2-2-2-----|
- -2h4---------0-----0-0-0-0-0-----2h4---------0-----0-0-0-0-0-----|
- -------------0-----0-0-0-0-0-0-0-------------0-----0-0-0-0-0-0-0-|
- -----0---0-0-0-----0-0-0-0-0-0-0-----0---0-0-0-----0-0-0-0-0-0-0-|
PM     .   ...                 ...     .   ...                 ...

- -----------------------------------------------------------------|
- -5-5-5-5-5-5-5-5-5-5-5-5-5-5-5-5-5-5-5-5-5-5-5-5-5-5-5-5-5-5-5-5-|
- -6-6-6-6-6-6-6-6-6-6-6-6-6-6-6-6-6-6-6-6-6-6-6-6-6-6-6-6-6-6-6-6-|
- -4-4-4-4-4-4-4-4-4-4-4-4-4-4-4-4-4-4-4-4-4-4-4-4-4-4-4-4-4-4-4-4-|
- -4-4-4-4-4-4-4-4-4-4-4-4-4-4-4-4-4-4-4-4-4-4-4-4-4-4-4-4-4-4-4-4-|
- -4-4-4-4-4-4-4-4-4-4-4-4-4-4-4-4-4-4-4-4-4-4-4-4-4-4-4-4-4-4-4-4-|

- -----------------------------------------------------------------|
- -------------2-----2-2-2-2-2-----3-2-----------------------------|
- -------2-----2-----2-2-2-2-2---------4-2-------------------------|
- -2h4---------0-----0-0-0-0-0-----------------4-2-0~--------------|
- -------------0-----0-0-0-0-0-0-0-----------------0~----------0-0-|
- -----0---0-0-0-----0-0-0-0-0-0-0-----------------0~----------0-0-|
PM     .   ...                 ...                             ...

[Riff 12b, Guitar 1 & 2] - [03:02] - [03:22]
- -17-12-------------------------------16-------17----12-------------------------------16----------|
- -------15-17-12-17----17-14-15-17-------17-12----------15-17-12-17----17-14-15-17-------17-12-17-|
- -------------------14-------------14-------------------------------14-------------14-------------|
- -------------------------------------------------------------------------------------------------|
- -------------------------------------------------------------------------------------------------|
- -------------------------------------------------------------------------------------------------|

- -17-14----14----14-----------------------------------------------14------------------------------|
- -------17----14-----------------------15----14----14-15----17-------17v--------------------------|
- -------------------16-14v-------14---------------------------------------------------------------|
- -----------------------------16----16----16----16-------16----16---------------------------------|
- -------------------------------------------------------------------------------------------------|
- -------------------------------------------------------------------------------------------------|


- -17-12-------------------------------16-------17----12-------------------------------16----------|
- -------15-17-12-17----17-14-15-17-------17-12----------15-17-12-17----17-14-15-17-------17-12-17-|
- -------------------14-------------14-------------------------------14-------------14-------------|
- -------------------------------------------------------------------------------------------------|
- -------------------------------------------------------------------------------------------------|
- -------------------------------------------------------------------------------------------------|
-
- -21-17-------------------------------19-------21----17-------------------------------19-------21-|
- -------19-22----22----22-17-19-22-------21-15----------19-22----22----22-17-19-22-------21-15----|
- -------------19----18-------------18-------------------------19----18-------------18-------------|
- -------------------------------------------------------------------------------------------------|
- -------------------------------------------------------------------------------------------------|
- -------------------------------------------------------------------------------------------------|


- -17-14----14----14-------------------------------------------------------------------------------|
- -------17----14-----------------------15----14----15-14------------------------------------------|
- -------------------16-14v-------14----------------------16-14----16/18--\14v---------------------|
- -----------------------------16----16----16----16------------------------------------------------|
- -------------------------------------------------------------------------------------------------|
- -------------------------------------------------------------------------------------------------|
-
- -21-17----17----17-------------------------------------------------------------------------------|
- -------21----17-----------------------19----17----19-17------------------------------------------|
- -------------------19-18v-------18----------------------19-18----19/21--\18v---------------------|
- -----------------------------19----19----19----19------------------------------------------------|
- -------------------------------------------------------------------------------------------------|
- -------------------------------------------------------------------------------------------------|


[Riff 13a] - [03:22] - [03:42]
- ----------------------------------------------5-----------------------------|
- -5---------------2-------------5--------------3-----------------------------|
- -6---------------2-------------6--------------2-----------------------------|
- -4---------------0-------------4--------------0-------------2---------2-2---|
- -4---------------0-------------4--------------0-------------2---2-2-2-2-2---|
- -4(x32)----------0(x32)--------4(x32)---------0(x24)--------2---2-2-2-2-2---|
PM                                                                .....

[Riff 13b, Guitar 1 & 2] - [03:22] - [03:44]
- ----------------12h17p12----------12/21p17----------17-22\21p17------|
- -------------14----------14----14----------17----17-------------17---|
- ----------14----------------14----------------18---------------------|
- -------14------------------------------------------------------------|
- -12h16---------------------------------------------------------------|
- ---------------------------------------------------------------------|
-
- ----------------12h17p12----------12/21p17----------17-22\21p17------|
- -------------14----------14----14-------------------------------17---|
- ----------14----------------14-------------21p18h21------------------| alternate fingering
- -------14------------------------------------------------------------| not second guitar
- -12h16---------------------------------------------------------------|
- ---------------------------------------------------------------------|


- -16p12-------------------------------------------------------------14h16-|
- -------14-------------------------------------------------14h15h17-------|
- ----------14p13----------------------13h14p13----13h14h16----------------|
- ----------------14----------------14----------14-------------------------|
- -------------------16p12\11/12h16----------------------------------------|
- -------------------------------------------------------------------------|
-
- -16----------------------------------------------------------------14h16-|
- ----17----------------------------------------------------14h15h17-------|
- -------18----------------------------13h14p13----13h14h16----------------| alternate fingering
- ----------19\18p14----------------14----------14-------------------------| not second guitar
- -------------------16p12\11/12h16----------------------------------------|
- -------------------------------------------------------------------------|


- -17--12/14--------------------------------------------------------------------------------|
- -----------15-14--------9---10/12-12---\7----\5-------------------------------------------|
- ------------------14\9-------------------------------6-/7--/9--/14v----------16-----------|
- -------------------------------------------------7------------------------12----12-11v----|
- ------------------------------------------------------------------------------------------|
- ------------------------------------------------------------------------------------------|
-
- -21--16/17--------------------------------------------------------------------------------|
- -----------19-17--------12--14/15-15---\10---\9-------------------------------------------|
- ------------------18\13------------------------------9-/11-/13-/18v----------19-----------|
- -------------------------------------------------11-----------------------16----16-14v----|
- ------------------------------------------------------------------------------------------|
- ------------------------------------------------------------------------------------------|


- -19b-------20--19r-17h19-19br----------------17----17----------|
- ------------------------------------------------19----19-17\14-|
- -(hold 19 bend and hit 20 fret)--------------------------------|
- ---------------------------------------------------------------|
- ---------------------------------------------------------------|
- ---------------------------------------------------------------|

- -------17---------------------------17h19p17-21p17v--\14-------|
- -17b------17p15----15v--17p15-17/19----------------------------|
- ----------------16---------------------------------------------|
- ---------------------------------------------------------------|
- ---------------------------------------------------------------|
- ---------------------------------------------------------------|


- ------------14h17-19p17----/19-19bv----------------------------|
- ---------14----------------------------------------------------|
- ------14-------------------------------------------------------|
- ---16----------------------------------------------------------|
- ---------------------------------------------------------------|
- ---------------------------------------------------------------|
-
- ------------17h21-22p21----/24-24bv----------------------------|
- ---------19----------------------------------------------------|
- ------18-------------------------------------------------------|
- ---19----------------------------------------------------------|
- ---------------------------------------------------------------|
- ---------------------------------------------------------------|


[Riff 14] - [03:42] - [04:01]
- ------------------------------------------------------------------|
- ---------------------------------------------------------------10-|
- -----------------------------------------------9\6-------4/6-9----|
- -----4-4---------------6-6---7-7---------6h7-------7p4------------|
- -----------7---4---5-----------------4h5---------------7----------|
- -4-4-----4---4---4---4-----4-----4-4---------4--------------------|
PM ...     .   .   .   .     .     ...         .

- ------------------------------------------------------------------|
- ---------------------2br--------------------------------------5h7-|
- ---------2---------2-------2-------------2-----6br----------6-----|
- -----2h4---4---2h4-----------2h4-----2h4---4/7--------7-4-7-------|
- ------------------------------------------------------------------|
- -0-0---------0-------------------0-0------------------------------|
PM ...         .                   ...                    .

- ------------------------------------------------------------------|
- ---------------------------------------------------------------10-|
- -----------------------------------------------9\6-------4/6-9----|
- -----4-4---------------6-6---7-7---------6h7-------7p4------------|
- -----------7---4---5-----------------4h5---------------7----------|
- -4-4-----4---4---4---4-----4-----4-4---------4--------------------|
PM ...     .   .   .   .     .     ...         .

- ------------------------------------------------------------------|
- ---------------------2br------------------------------------------|
- ---------2---------2-------2-------------2-----6br----------4-----|
- -----2h4---4---2h4-----------2h4-----2h4---4/7--------7-4-----7p6-|
- ----------------------------------------------------------7-------|
- -0-0---------0-------------------0-0------------------------------|
PM ...         .                   ...                    ...

[Riff 15a, Guitar 1 & 2] - [04:01] - [04:06]
- -----------------------------------------------------------------|
- -----------------------------------------------------------------|
- -----------------------------------------------------------------|
- -4~----------------------------------------------4-4-4-4-4-4-4-4-|
- -4~----------------------------444-4-4-4-4-4-4-4-4-4-4-4-4-4-4-4-|
- -4~----------------------------444-4-4-4-4-4-4-4-4-4-4-4-4-4-4-4-|
PM                               .................
- -----------------------------------------------------------------|
- -----------------------------------------------------------------|
- -----------------------------------------------------------------|
- -4-----------------------------------------------4-4-4-4-4-4-4-4-|
- -4---4-4-4-4-4-4-4-4-4-4-4-4-4-444-4-4-4-4-4-4-4-4-4-4-4-4-4-4-4-|
- -4---4-4-4-4-4-4-4-4-4-4-4-4-4-444-4-4-4-4-4-4-4-4-4-4-4-4-4-4-4-|
PM     ...........................................

[Riff 15b] - [04:01] - [04:06]
- -----------------5~------------------------------5-5-5-5-5-5-5-5-|
- -----------------7~------------------------------7-7-7-7-7-7-7-7-|
- -----------------6~------------------------------6-6-6-6-6-6-6-6-|
- -----------------------------------------------------------------|
- -----------------------------------------------------------------|
- -----------------------------------------------------------------|

[Riff 16] - [04:06] - [05:09----------------------------------------| - [x6]
- ------------------------------------------------------------------|
- ------------------------------------------------------------------|
- ------------------------------------------------------------------|
- ------------------------------------------------------------------|
- -0-000-----0---000---------000-0-0-000-----0---000-----0---000-0--|
- -0-000-----0---000---------000-0-0-000-----0---000-----0---000-0--|
PM ...............................................................

- -----------------------------------------------------------------|
- -----------------------------------------------------------------|
- ---------------------------------------------------------6-------|
- -------------------------------------------------------7---7-6---|
- -444-444-----444-----44444---------7-77777-----7-77777---------7-|
- -444-444-----444-----44444---------7-77777-----7-77777-----------|
PM .......................................................

[Riff 9b] - [04:06] - [05:09]

[Symbols]

PM... Palm Mute notes with (...) under them
AP... Alternate Pick notes with (...) under them
h     Hammer On
p     Pull Off
[ ]   Harmonic
/     Slide Up
\     Slide Down
x     Dead Note
b     Bend
p     Pre-Bend
r     Release Bend
(x )  Play Notes x amount of times
~     Let Ring
/ 3 \ Notes are triplets (3 notes in the space of two)
w\    Whammy Bar Down
w/    Whammy Bar Up
T     Right Hand Tap

:)
Добавлено: 29.08.2015
Другие материалы по этой песне:

Страница создана 29.08.2015
http://primanota.ru/august-burns-red/everlasting-ending-chords.htm
Привет, Гость.
Предлагаем пройти революционный курс по гитаре.
Подарок от PrimaNota.Ru, забирай!