PrimaNota.ru - самый крупный в мире бесплатный архив песенных текстов, аккордов, табулатур и нот


August Burns Red - Cutting The Ties - таба, видео

Регистрация Запомнить меня
Войти через:  Facebook Google Twitter Vk Yandex Mail.ru

August Burns Red - Cutting The Ties - таба, видео

Печатать
Просмотров: 95
AUGUST BURNS RED
CUTTING THE TIES
CGCFAD

*=PALM MUTE

TABBED BY andherembrace


0:00
gt1
------------------^-----------------------------|
---^------------11-10---------------------------|
-12-10--*-10--*--------*-10--*-12--*-14--*-10-*-|
--------0-----0--------0-----0-----0-----0----0-|
------------------------------------------------|
------------------------------------------------|


------------------^-----------------------------|
---^------------11-10----------15----10---------|
-12-10--*-10--*--------*-10--*-----*-----*-10-*-|
--------0-----0--------0-----0-----0-----0----0-|
------------------------------------------------|
------------------------------------------------|

------------------^-----------------------------|
---^------------11-10---------------------------|
-12-10--*-10--*--------*-10--*-12--*-14--*-10-*-|
--------0-----0--------0-----0-----0-----0----0-|
------------------------------------------------|
------------------------------------------------|


---^----------------------------------------|
-17-15----------^---------------17---15-----|
-------*-14-*-15-14-*-14-*-15-*----*----*---|
-------0----0-------0----0----0----0----0---|
--------------------------------------------|
--------------------------------------------|

0:08
gt1
------------------^-----------------------------|
---^------------11-10---------------------------|
-12-10--*-10--*--------*-10--*-12--*-14--*-10-*-|
--------0-----0--------0-----0-----0-----0----0-|
------------------------------------------------|
------------------------------------------------|
gt2
------------------------------------------------|
------------------------------------------------|
------------------------------------------------|
-0----------------------------------------------|
-0----------------------------------------------|
-0----------------------------------------------|


gt1
------------------^-----------------------------|
---^------------11-10----------15----10---------|
-12-10--*-10--*--------*-10--*-----*-----*-10-*-|
--------0-----0--------0-----0-----0-----0----0-|
------------------------------------------------|
------------------------------------------------|

------------------^-----------------------------|
---^------------11-10---------------------------|
-12-10--*-10--*--------*-10--*-12--*-14--*-10-*-|
--------0-----0--------0-----0-----0-----0----0-|
------------------------------------------------|
------------------------------------------------|

gt1
---^----------------------------------------|
-17-15----------^---------------17---15-----|
-------*-14-*-15-14-*-14-*-15-*----*----*---|
-------0----0-------0----0----0----0----0---|
--------------------------------------------|
--------------------------------------------|
gt2
--------------------------------------------|
--------------------------------------------|
--------------*--*-*----*-*-*****-----------|
--------------3--3-3----5-5-55555-----------|
--------------3--3-3----5-5-55555-----------|
--------------3--3-3----5-5-55555-----------|

0:16
gt1
------------------^-----------------------------|
---^------------11-10---------------------------|
-12-10--*-10--*--------*-10--*-12--*-14--*-10-*-|
--------0-----0--------0-----0-----0-----0----0-|
------------------------------------------------|
------------------------------------------------|
gt2
-----------------------------------------------|
-----------------------------------------------|
-*---*-*-*-*-*-*------------------*---*-*-*-*--|
-0---0-0-0-0-0-0------------------0---0-0-0-0--|
-0---0-0-0-0-0-0------------------0---0-0-0-0--|
-0---0-0-0-0-0-0------------------0---0-0-0-0--|


gt1
------------------^-----------------------------|
---^------------11-10----------15----10---------|
-12-10--*-10--*--------*-10--*-----*-----*-10-*-|
--------0-----0--------0-----0-----0-----0----0-|
------------------------------------------------|
------------------------------------------------|
gt2
------------------------------------------------|
------------------------------------------------|
*-*-*-*--------------------------*-*-*-*---*-*--|
0-0-0-0--------------------------0-0-0-0---0-0--|
0-0-0-0--------------------------0-0-0-0---0-0--|
0-0-0-0--------------------------0-0-0-0---0-0--|


gt1
------------------^-----------------------------|
---^------------11-10---------------------------|
-12-10--*-10--*--------*-10--*-12--*-14--*-10-*-|
--------0-----0--------0-----0-----0-----0----0-|
------------------------------------------------|
------------------------------------------------|
gt2
------------------------------------------------|
------------------------------------------------|
-*-*-*-*-*-*-*-*------------------*---*-*-*-*---|
-0-0-0-0-0-0-0-0------------------0---0-0-0-0---|
-0-0-0-0-0-0-0-0------------------0---0-0-0-0---|
-0-0-0-0-0-0-0-0------------------0---0-0-0-0---|



gt1
---^----------------------------------------|
-17-15----------^---------------17---15-----|
-------*-14-*-15-14-*-14-*-15-*----*----*---|
-------0----0-------0----0----0----0----0---|
--------------------------------------------|
--------------------------------------------|

--------------------------------------------|
--------------------------------------------|
--*---*-*----------*---*----*-*-*-*-*-------|
--3---3-3----------5---5----5-5-5-5-5-------|
--3---3-3----------5---5----5-5-5-5-5-------|
--3---3-3----------5---5----5-5-5-5-5-------|


0:24
gt1
------------------^-----------------------------|
---^------------11-10---------------------------|
-12-10--*-10--*--------*-10--*-12--*-14--*-10-*-|
--------0-----0--------0-----0-----0-----0----0-|
------------------------------------------------|
------------------------------------------------|

gt2
-----------------------------------------------|
-----------------------------------------------|
-*---*-*-*-*-*-*------------------*---*-*-*-*--|
-0---0-0-0-0-0-0------------------0---0-0-0-0--|
-0---0-0-0-0-0-0------------------0---0-0-0-0--|
-0---0-0-0-0-0-0------------------0---0-0-0-0--|


gt1
------------------^-----------------------------|
---^------------11-10----------15----10---------|
-12-10--*-10--*--------*-10--*-----*-----*-10-*-|
--------0-----0--------0-----0-----0-----0----0-|
------------------------------------------------|
------------------------------------------------|
gt2
------------------------------------------------|
------------------------------------------------|
*-*-*-*--------------------------*-*-*-*---*-*--|
0-0-0-0--------------------------0-0-0-0---0-0--|
0-0-0-0--------------------------0-0-0-0---0-0--|
0-0-0-0--------------------------0-0-0-0---0-0--|


gt1
------------------^-----------------------------|
---^------------11-10---------------------------|
-12-10--*-10--*--------*-10--*-12--*-14--*-10-*-|
--------0-----0--------0-----0-----0-----0----0-|
------------------------------------------------|
------------------------------------------------|
gt2
------------------------------------------------|
------------------------------------------------|
-*-*-*-*-*-*-*-*------------------*---*-*-*-*---|
-0-0-0-0-0-0-0-0------------------0---0-0-0-0---|
-0-0-0-0-0-0-0-0------------------0---0-0-0-0---|
-0-0-0-0-0-0-0-0------------------0---0-0-0-0---|



gt1
---^----------------------------------------|
-17-15----------^---------------17---15-----|
-------*-14-*-15-14-*-14-*-15-*----*----*---|
-------0----0-------0----0----0----0----0---|
--------------------------------------------|
--------------------------------------------|
gt2
--------------------------------------------|
--------------------------------------------|
--*---*-*----------*---*----*-*-*-*-*-------|
--3---3-3----------5---5----5-5-5-5-5-------|
--3---3-3----------5---5----5-5-5-5-5-------|
--3---3-3----------5---5----5-5-5-5-5-------|


0:31
both
---------------------------------------------------------------|
---------------------------------------------------------------|
-----------------7---------7-----------------------7---------7-|
-0---------------7---------7------*-*-*-0----------7---------7-|
-0---------8-8-8-----7-7-7--------0-0-0-0----8-8-8-----7-7-7---|
-0---------8-8-8-----7-7-7--------0-0-0-0----8-8-8-----7-7-7---|




0:40
gt1
-10----------------------------10----------------------12------|
---10------------10---------10---10-------------10-------14----|
------------10-12----12--12----------------10-12--12-----------|
-----12----------------14------------12-------------14---------|
---------------------------------------------------------------|
---------------------------------------------------------------|
gt2
---------------------------------------------------------------|
---------------------------------------------------------------|
-----------------7---------7-----------------------7---------7-|
-0-0-0-----------7---------7------*-*-*-0----------7---------7-|
-0-0-0-----8-8-8-----7-7-7--------0-0-0-0----8-8-8-----7-7-7---|
-0-0-0-----8-8-8-----7-7-7--------0-0-0-0----8-8-8-----7-7-7---|


0:49
gt1
-10---------------------------------------|
---10---------------10--------------------|
-----------------------10----10-----------|
------12------------------12--------------|
------------------------------------------|
------------------------------------------|
gt2
------------------------------------------|
------------------------------------------|
------------------------------------------|
*-****----******-----******-----******-*--|
0-0000----000000-----000000-----000000-0--|
0-0000----000000-----000000-----000000-0--|

0:54
gt1
------------------------------------------|
-------10------------------10---11-10-----|
----10------------------10------------10--|
-10------------------11-------------------|
------------------------------------------|
------------------------------------------|
gt2
------------------------------------------|
------------------------------------------|
------------------------------------------|
*-****----******-----******-----******-*--|
0-0000----000000-----000000-----000000-0--|
0-0000----000000-----000000-----000000-0--|



gt1
-10---------------------------------------|
---10---------------10--------------------|
-----------------------10----10-----------|
------12------------------12--------------|
------------------------------------------|
------------------------------------------|
gt2
------------------------------------------|
------------------------------------------|
------------------------------------------|
*-****----******-----******-----******-*--|
0-0000----000000-----000000-----000000-0--|
0-0000----000000-----000000-----000000-0--|

gt1
------------------------------------------|
-------10------------------10---11-10-----|
----10------------------10------------10--|
-10------------------11-------------------|
------------------------------------------|
------------------------------------------|
gt2
------------------------------------------|
------------------------------------------|
------------------------------------------|
*-****----******-----******-----******-*--|
0-0000----000000-----000000-----000000-0--|
0-0000----000000-----000000-----000000-0--|

1:07
gt1
--------------------------------------------------------------------|
--------------------------------------------------------------------|
--------*-*-----*-*-*-*-------------------*-*-----------------------|
*-*-*-*-7-7-*-*-8-8-7-7-*-*-----------*-*-7-7-*-*-----*-*--*--*-*-*-|
5-5-8-8-----8-8---------8-8--*--*-*-*-8-8-----8-8-*-*-8-8-10-10-8-8-|
----------------------------10-10-8-8-------------7-7---------------|
gt2
------------------------------------------------------------------|
------------------------------------------------------------------|
-7--------------------------------7---------------7---------------|
-0--------------------------------0---------------0---------------|
-0--------------------------------0---------------0---------------|
-0--------------------------------8---------------7---------------|

gt1
--------------------------------------------------------------------|
--------------------------------------------------------------------|
--------*-*-----*-*-*-*-------------------*-*-----------------------|
*-*-*-*-7-7-*-*-8-8-7-7-*-*-----------*-*-7-7-*-*-----*-*--*--*-*-*-|
5-5-8-8-----8-8---------8-8--*--*-*-*-8-8-----8-8-*-*-8-8-10-10-8-8-|
----------------------------10-10-8-8-------------7-7---------------|
gt2
------------------------------------------------------------------|
------------------------------------------------------------------|
-7--------------------------------7---------------7---------------|
-0--------------------------------0---------------0---------------|
-0--------------------------------0---------------0---------------|
-0--------------------------------8---------------7---------------|

gt1
--------------------------------------------------------------------|
--------------------------------------------------------------------|
--------*-*-----*-*-*-*-------------------*-*-----------------------|
*-*-*-*-7-7-*-*-8-8-7-7-*-*-----------*-*-7-7-*-*-----*-*--*--*-*-*-|
5-5-8-8-----8-8---------8-8--*--*-*-*-8-8-----8-8-*-*-8-8-10-10-8-8-|
----------------------------10-10-8-8-------------7-7---------------|
gt2
------------------------------------------------------------------|
------------------------------------------------------------------|
-7--------------------------------7---------------7---------------|
-0--------------------------------0---------------0---------------|
-0--------------------------------0---------------0---------------|
-0--------------------------------8---------------7---------------|

gt1
--------------------------------------------------------------------|
--------------------------------------------------------------------|
--------*-*-----*-*-*-*-------------------*-*-----------------------|
*-*-*-*-7-7-*-*-8-8-7-7-*-*-----------*-*-7-7-*-*-----*-*--*--*-*-*-|
5-5-8-8-----8-8---------8-8--*--*-*-*-8-8-----8-8-*-*-8-8-10-10-8-8-|
----------------------------10-10-8-8-------------7-7---------------|
gt2
------------------------------------------------------------------|
------------------------------------------------------------------|
-7--------------------------------7---------------7---------------|
-0--------------------------------0---------------0---------------|
-0--------------------------------0---------------0---------------|
-0--------------------------------8---------------7---------------|

1:25
gt1
----------------------------------------------------------------|
----------------------------------------------------------------|
----------------------------------------------------------------|
----------------------------------------------------------------|
*-*-5-5-*-*-5-5-*-*-8-8-*-*-7-7-*-*-5-5-*-*-5-5-*-*-5-5-*-*-5-5-|
0-0-----0-0-----0-0-----0-0-----8-8-----8-8-----7-7-----7-7-----|
gt2
--------------------------------------------------------------------|
--------------------------------------------------------------------|
--------*-*-----*-*-*-*-------------------*-*-----------------------|
*-*-*-*-7-7-*-*-8-8-7-7-*-*-----------*-*-7-7-*-*-----*-*--*--*-*-*-|
5-5-8-8-----8-8---------8-8--*--*-*-*-8-8-----8-8-*-*-8-8-10-10-8-8-|
----------------------------10-10-8-8-------------7-7---------------|


gt1
----------------------------------------------------------------|
----------------------------------------------------------------|
----------------------------------------------------------------|
----------------------------------------------------------------|
*-*-5-5-*-*-5-5-*-*-8-8-*-*-7-7-*-*-5-5-*-*-5-5-*-*-5-5-*-*-5-5-|
0-0-----0-0-----0-0-----0-0-----8-8-----8-8-----7-7-----7-7-----|
gt2
--------------------------------------------------------------------|
--------------------------------------------------------------------|
--------*-*-----*-*-*-*-------------------*-*-----------------------|
*-*-*-*-7-7-*-*-8-8-7-7-*-*-----------*-*-7-7-*-*-----*-*--*--*-*-*-|
5-5-8-8-----8-8---------8-8--*--*-*-*-8-8-----8-8-*-*-8-8-10-10-8-8-|
----------------------------10-10-8-8-------------7-7---------------|


1:34
gt1
----------------------------------^----------------^------------8--|
------------------------6-----6-10-6---6-----6-10-8-5---5-8-5-8----|
----------------7-9-7-9---9-7--------9---7-9----------5------------|
*-*-*-*-7-7--------------------------------------------------------|
5-5-8-8-----8-8----------------------------------------------------|
-------------------------------------------------------------------|
gt2
-------------------------------------------------------------------------|
-------------------------10-----10--^------------------------------------|
--------------10-12-10-12--12-10--14-10--10-----10-14--^---------------12|
---*-*---------------------------------12--10-12-----14-10--10-14-10-14--|
*-*5-5-8-8-5-5--------------------------------------------12-------------|
8-8----------------------------------------------------------------------|


gt1
----------------------------------^------------------------------|
------------------------6-----6-10-6---6-----6-10-8------5--\----|
----------------7-9-7-9---9-7--------9---7-9---------------------|
*-*-*-*-7-7------------------------------------------------------|
5-5-8-8-----8-8--------------------------------------------------|
-----------------------------------------------------------------|
gt2
-------------------------------------------------------------------|
-------------------------10-----10--^------------------------------|
--------------10-12-10-12--12-10--14-10--10-----10-14--------------|
---*-*---------------------------------12--10-12-----14------10-\--|
*-*5-5-8-8-5-5-----------------------------------------------------|
8-8----------------------------------------------------------------|


1:43
clean
1
----------------------------------------------|
-------10----11-10----------10---------8------|
----10----10------10-----10----10---10---10---|
-12-----------------10-8----------7-----------|
----------------------------------------------|
----------------------------------------------|
2
------------------------------------------------|
------------------------------------------------|
-7--7--7--7--5--5--5----------------------------|
----------------------5--8--8--8--8--7--7--7--7-|
------------------------------------------------|
------------------------------------------------|

1
----------------------------------------------|
-------10----11-10----------10---------8------|
----10----10------10-----10----10---10---10---|
-12-----------------10-8----------7-----------|
----------------------------------------------|
----------------------------------------------|
2
------------------------------------------------|
------------------------------------------------|
-7--7--7--7--5--5--5----------------------------|
----------------------5--8--8--8--8--7--7--7--7-|
------------------------------------------------|
------------------------------------------------|

1
----------------------------------------------|
-------10----11-10----------10---------8------|
----10----10------10-----10----10---10---10---|
-12-----------------10-8----------7-----------|
----------------------------------------------|
----------------------------------------------|
2
------------------------------------------------|
------------------------------------------------|
-7--7--7--7--5--5--5----------------------------|
----------------------5--8--8--8--8--7--7--7--7-|
------------------------------------------------|
------------------------------------------------|

1
------------------------------|
-------10----11-10------------|
----10----10------10-----10---|
-12-----------------10-8------|
------------------------------|
------------------------------|
2
-------------------------------|
-------------------------------|
-7--7--7--7--5--5--5-----------|
----------------------5--8--8--|
-------------------------------|
-------------------------------|
|||||||||||||||||||||||||||||||||||

2:04
both
-----------------------------------------------|
-----------------------------------------------|
-----------------------------------------------|
-7-------------10-10-10-------------/7-7-7-----|
-7-----5-5-5-0----------10\5-5-5-5--------5\---|
-7-----7-7-7-0-------------8-8-8---------------|

------------------------------------------|
------------------------------------------|
------------------------------------------|
----------10-10-10-------------/7-7-7-----|
--5-5-5-0----------10\5-5-5-5--------5\---|
--7-7-7-0-------------8-8-8---------------|


2:18
gt1
------------------------------------12/13-13-13-|
10----10----11----13----10----10----------------|
---10----10----10----10----10----10-------------|
------------------------------------------------|
------------------------------------------------|
------------------------------------------------|
gt2
------------------------------------------|
------------------------------------------|
------------------------------------------|
----------10-10-10-------------/7-7-7-----|
--5-5-5-0----------10\5-5-5-5--------5\---|
--7-7-7-0-------------8-8-8---------------|


gt1
------------------------------------12/13-13-13-|
10----10----11----13----10----10----------------|
---10----10----10----10----10----10-------------|
------------------------------------------------|
------------------------------------------------|
------------------------------------------------|
gt2
------------------------------------------|
------------------------------------------|
------------------------------------------|
----------10-10-10-------------/7-7-7-----|
--5-5-5-0----------10\5-5-5-5--------5\---|
--7-7-7-0-------------8-8-8---------------|


gt1
------------------------------------12/13-13-13-|
10----10----11----13----10----10----------------|
---10----10----10----10----10----10-------------|
------------------------------------------------|
------------------------------------------------|
------------------------------------------------|
gt2
------------------------------------------|
------------------------------------------|
------------------------------------------|
----------10-10-10-------------/7-7-7-----|
--5-5-5-0----------10\5-5-5-5--------5\---|
--7-7-7-0-------------8-8-8---------------|

gt1
------------------------------------------|
10----10----11----13----10-10-------------|
---10----10----10----10-10-10|------------|
---------------------------------7--------|
---------------------------------7--------|
---------------------------------7--------|
gt2
------------------------------------------|
------------------------------------------|
------------------------------------------|
----------10-10-10---------------7--------|
--5-5-5-0----------10\5-5--------7--------|
--7-7-7-0-------------8-8|-------7--------|


2:40
gt1
---------------------------------------------------------------|
---------------------------------------------------------------|
---------------------------------------------------------------|
-0---------------------------------0---------------------------|
-0---------------------------------0-----------*-*-*-*-*-*-7-3-|
-0---------------------------------0-----------0-0-0-0-0-0-7-3-|
gt2
---------------------------------------------------------------|
---------------------------------------------------------------|
---------------------------------------------------------------|
-----7-7---------7-7-----------8-8-----7-7---------------------|
-*-*-----8-8-*-*-----8-8-10-10-----*-*-----8-8-*-*-*-*-*-*-7-3-|
-0-0---------0-0-------------------0-0---------0-0-0-0-0-0-7-3-|


gt1
-------------------------------------------------------------------|
-------------------------------------------------------------------|
-------------------------------------------------------------------|
-*-----------*--------------------------------------7-5------------|
-0-----------0---------------------5--*-*-*-8-5-7-8-----8-7-8-5----|
-0-----------0------------------------0-0-8---------------------7--|
gt2
-----------------------------------------------------------------------|
-----------------------------------------------------------------------|
-----------------------------------------------------------------------|
-----7-7---------7-7-----------8-8--------------------10-8-------------|
-*-*-----8-8-*-*-----8-8-10-10------5-*-*-*-12-8-10-12----12-8-10-7----|
-0-0---------0-0----------------------0-0-8-------------------------8--|

gt1
---------------------------------------------------------------|
---------------------------------------------------------------|
---------------------------------------------------------------|
------------------------------5-5------------------------------|
-*-*-8-8-5-5-*-*-8-8-5-5-7-7-------*-*-8-8-5-5-*-*-*-*-*-*-7-3-|
-0-0---------0-0-------------------0-0---------0-0-0-0-0-0-7-3-|
gt2
---------------------------------------------------------------|
---------------------------------------------------------------|
---------------------------------------------------------------|
-----7-7---------7-7-----------8-8-----7-7---------------------|
-*-*-----8-8-*-*-----8-8-10-10-----*-*-----8-8-*-*-*-*-*-*-7-3-|
-0-0---------0-0-------------------0-0---------0-0-0-0-0-0-7-3-|

gt1
---------------------------------------------------------------|
---------------------------------------------------------------|
---------------------------------------------------------------|
------------------------------5-5------------------7-5---------|
-*-*--8-8-5-5-*-*-8-8-5-5-7-7-----5--*-*-*-8-5-7-8-----8-7-8---|
-0-0----------0-0--------------------0-0-8-------------------7-|
gt2
----------------------------------------------------------------------|
----------------------------------------------------------------------|
----------------------------------------------------------------------|
-----7-7---------7-7-----------8-8--------------------10-8------------|
-*-*-----8-8-*-*-----8-8-10-10-----5-*-*-*-12-8-10-12-----12-8-10-7---|
-0-0---------0-0---------------------0-0-8--------------------------8-|

gt1
----------------------------------------------------------------|
----------------------------------------------------------------|
----------------------------------------------------------------|
-*----*-*-*-*--------****-----*-*-------------------------------|
-0----0-0-0-0--------0000-----0-0---------------*-*-*-*-*-*-7-3-|
-0----0-0-0-0--------0000-----0-0---------------0-0-0-0-0-0-7-3-|
gt2
---------------------------------------------------------------|
---------------------------------------------------------------|
---------------------------------------------------------------|
-----7-7---------7-7-----------8-8-----7-7---------------------|
-*-*-----8-8-*-*-----8-8-10-10-----*-*-----8-8-*-*-*-*-*-*-7-3-|
-0-0---------0-0-------------------0-0---------0-0-0-0-0-0-7-3-|

gt1
----------------------------------------------------------------|
----------------------------------------------------------------|
----------------------------------------------------------------|
-*----*-*-*-*--------****-----*-------------------7-5-----------|
-0----0-0-0-0--------0000-----0--5--*-*-*-8-5-7-8-----8-7-8-----|
-0----0-0-0-0--------0000-----0-----0-0-8-------------------7---|
gt2
----------------------------------------------------------------------|
----------------------------------------------------------------------|
----------------------------------------------------------------------|
-----7-7---------7-7-----------8-8--------------------10-8------------|
-*-*-----8-8-*-*-----8-8-10-10-----5-*-*-*-12-8-10-12-----12-8-10-7---|
-0-0---------0-0---------------------0-0-8--------------------------8-|



gt1
----------------------------------------------------------------|
----------------------------------------------------------------|
----------------------------------------------------------------|
-*----*-*-*-*--------****-----*-*-------------------------------|
-0----0-0-0-0--------0000-----0-0---------------*-*-*-*-*-*-7-3-|
-0----0-0-0-0--------0000-----0-0---------------0-0-0-0-0-0-7-3-|
gt2
---------------------------------------------------------------|
---------------------------------------------------------------|
---------------------------------------------------------------|
-----7-7---------7-7-----------8-8-----7-7---------------------|
-*-------8---*-------8-8-10-10-------*-----8---*-*-*-*-*-*-7-3-|
-0-----------0-----------------------0---------0-0-0-0-0-0-7-3-|

gt1
----------------------------------------------------------------|
----------------------------------------------------------------|
----------------------------------------------------------------|
-*----*-*-*-*--------****-----*-------------------7-5-----------|
-0----0-0-0-0--------0000-----0--5--*-*-*-8-5-7-8-----8-7-8-----|
-0----0-0-0-0--------0000-----0-----0-0-8-------------------7---|
gt2
----------------------------------------------------------------------|
----------------------------------------------------------------------|
----------------------------------------------------------------------|
-----7-7---------7-7-----------8-8--------------------10-8------------|
---*-----8-----*-----8-8-10-10-----5-*-*-*-12-8-10-12-----12-8-10-7---|
---0-----------0---------------------0-0-8--------------------------8-|

3:15
both
---------------------------------------------------------------|
---------------------------------------------------------------|
-----------------7---------7-----------------------7---------7-|
-0---------------7---------7------*-*-*-0----------7---------7-|
-0---------8-8-8-----7-7-7--------0-0-0-0----8-8-8-----7-7-7---|
-0---------8-8-8-----7-7-7--------0-0-0-0----8-8-8-----7-7-7---|



gt1
-10----------------------------10----------------------12------|
---10------------10---------10---10-------------10-------14----|
------------10-12----12--12----------------10-12--12-----------|
-----12----------------14------------12-------------14---------|
---------------------------------------------------------------|
---------------------------------------------------------------|
gt2
---------------------------------------------------------------|
---------------------------------------------------------------|
-----------------7---------7-----------------------7---------7-|
-0-0-0-----------7---------7------*-*-*-0----------7---------7-|
-0-0-0-----8-8-8-----7-7-7--------0-0-0-0----8-8-8-----7-7-7---|
-0-0-0-----8-8-8-----7-7-7--------0-0-0-0----8-8-8-----7-7-7---|



gt1
-10---------------------------------------|
---10---------------10--------------------|
-----------------------10----10-----------|
------12------------------12--------------|
------------------------------------------|
------------------------------------------|
gt2
------------------------------------------|
------------------------------------------|
------------------------------------------|
*-****----******-----******-----******-*--|
0-0000----000000-----000000-----000000-0--|
0-0000----000000-----000000-----000000-0--|

gt1
------------------------------------------|
-------10------------------10---11-10-----|
----10------------------10------------10--|
-10------------------11-------------------|
------------------------------------------|
------------------------------------------|
gt2
------------------------------------------|
------------------------------------------|
------------------------------------------|
*-****----******-----******-----******-*--|
0-0000----000000-----000000-----000000-0--|
0-0000----000000-----000000-----000000-0--|



gt1
-10---------------------------------------|
---10---------------10--------------------|
-----------------------10----10-----------|
------12------------------12--------------|
------------------------------------------|
------------------------------------------|
gt2
------------------------------------------|
------------------------------------------|
------------------------------------------|
*-****----******-----******-----******-*--|
0-0000----000000-----000000-----000000-0--|
0-0000----000000-----000000-----000000-0--|

gt1
------------------------------------------|
-------10------------------10---11-10-----|
----10------------------10------------10--|
-10------------------11-------------------|
------------------------------------------|
------------------------------------------|
gt2
------------------------------------------|
------------------------------------------|
------------------------------------------|
*-****----******-----******-----******-*--|
0-0000----000000-----000000-----000000-0--|
0-0000----000000-----000000-----000000-0--|


3:49
gt1
------------------------------------------------------------|
------------------------------------------------------------|
------------------------------------------------------------|
-0----------------------------------------------------------|
-0----------------------------------------------------------|
-0----------------------------------------------------------|
gt2
------------------------------------------------------------|
------------------------------------------------------------|
------------------------------------------------------------|
-7-*****--****-*-7-****-*-***-7-*****--****-*-7-****-*-***--|
-5-00000--0000-0-5-0000-0-000-5-00000--0000-0-5-0000-0-000--|
-0-00000--0000-0-0-0000-0-000-0-00000--0000-0-0-0000-0-000--|


both
------------------------------------------------------------|
------------------------------------------------------------|
------------------------------------------------------------|
-7-*****--****-*-7-****-*-***-7-*****--****-*-7-****-*-***--|
-5-00000--0000-0-5-0000-0-000-5-00000--0000-0-5-0000-0-000--|
-0-00000--0000-0-0-0000-0-000-0-00000--0000-0-0-0000-0-000--|

------------------------------------------------------------|
------------------------------------------------------------|
------------------------------------------------------------|
-7-*****--****-*-7-****-*-***-7-*****--****-*-7-****-*-***--|
-5-00000--0000-0-5-0000-0-000-5-00000--0000-0-5-0000-0-000--|
-0-00000--0000-0-0-0000-0-000-0-00000--0000-0-0-0000-0-000--|


------------------------------------------------------------|
------------------------------------------------------------|
------------------------------------------------------------|
-7-*****--****-*-7-****-*-***-7-*****--****-*-7-****-*-***--|
-5-00000--0000-0-5-0000-0-000-5-00000--0000-0-5-0000-0-000--|
-0-00000--0000-0-0-0000-0-000-0-00000--0000-0-0-0000-0-000--|

------------------------------------------------------------|
------------------------------------------------------------|
------------------------------------------------------------|
-7-*****--****-*-7-****-*-***-7-*****--****-*-7-****-*-***--|
-5-00000--0000-0-5-0000-0-000-5-00000--0000-0-5-0000-0-000--|
-0-00000--0000-0-0-0000-0-000-0-00000--0000-0-0-0000-0-000--|



4:18
gt1
----------------^----------------------------|
---^----------12-10-------------10-----------|
-12-11-*-11-*-------*-11-*-12-*----*-11-*----|
-------0----0-------0----0----0----0----0----|
---------------------------------------------|
---------------------------------------------|
gt2
---------------------------------------------|
---------------------------------------------|
---------------------------------------------|
-0-------------------------------------------|
-0-------------------------------------------|
-0-------------------------------------------|


gt1
----------------^----------10----------------|
---^----------12-10-------------10-----------|
-12-11-*-11-*-------*-11-*----*----*-11-*----|
-------0----0-------0----0----0----0----0----|
---------------------------------------------|
---------------------------------------------|
gt2
---------------------------------------------|
---------------------------------------------|
---------------------------------------------|
-4-------------------------------------------|
-4-------------------------------------------|
-4-------------------------------------------|

gt1
----------------^----------------------------|
---^----------12-10-------------10-----------|
-12-11-*-11-*-------*-11-*-12-*----*-11-*----|
-------0----0-------0----0----0----0----0----|
---------------------------------------------|
---------------------------------------------|
gt2
---------------------------------------------|
---------------------------------------------|
---------------------------------------------|
-5-------------------------------------------|
-5-------------------------------------------|
-5-------------------------------------------|

gt1
   ^
-14-10----------^---------------14---10------|
---------10---12-10---10---12----------------|
-------*----*-------*----*----*----*----*----|
-------0----0-------0----0----0----0----0----|
---------------------------------------------|
---------------------------------------------|

gt2
---------------------------------------------|
---------------------------------------------|
---------------------------------------------|
-0-------------------------------------------|
-0-------------------------------------------|
-0-------------------------------------------|



gt1
----------------^----------------------------|
---^----------12-10-------------10-----------|
-12-11-*-11-*-------*-11-*-12-*----*-11-*----|
-------0----0-------0----0----0----0----0----|
---------------------------------------------|
---------------------------------------------|
gt2
---------------------------------------------|
---------------------------------------------|
---------------------------------------------|
-0-------------------------------------------|
-0-------------------------------------------|
-0-------------------------------------------|


gt1
----------------^----------10----------------|
---^----------12-10-------------10-----------|
-12-11-*-11-*-------*-11-*----*----*-11-*----|
-------0----0-------0----0----0----0----0----|
---------------------------------------------|
---------------------------------------------|
gt2
---------------------------------------------|
---------------------------------------------|
---------------------------------------------|
-4-------------------------------------------|
-4-------------------------------------------|
-4-------------------------------------------|

gt1
----------------^----------------------------|
---^----------12-10-------------10-----------|
-12-11-*-11-*-------*-11-*-12-*----*-11-*----|
-------0----0-------0----0----0----0----0----|
---------------------------------------------|
---------------------------------------------|
gt2
---------------------------------------------|
---------------------------------------------|
---------------------------------------------|
-5-------------------------------------------|
-5-------------------------------------------|
-5-------------------------------------------|

gt1
   ^
-14-10----------^---------------14---10------|
---------10---12-10---10---12----------------|
-------*----*-------*----*----*----*----*----|
-------0----0-------0----0----0----0----0----|
---------------------------------------------|
---------------------------------------------|

gt2
---------------------------------------------|
---------------------------------------------|
---------------------------------------------|
-0-------------------------------------------|
-0-------------------------------------------|
-0-------------------------------------------|
|||||||||||||||||||||||||||||||||||||||||||||


4:34
gt1
----------------^----------------------------|
---^----------12-10-------------10-----------|
-12-11-*-11-*-------*-11-*-12-*----*-11-*----|
-------0----0-------0----0----0----0----0----|
---------------------------------------------|
---------------------------------------------|
gt2
--------------------------------------------|
----------------^---------------------------|
---^----------14-11-------------11----------|
-14-12-*-12-*-------*-12-*-14-*----*-12-*---|
-------0----0-------0----0----0----0----0---|
--------------------------------------------|
gt3
---------------------------------------------|
---------------------------------------------|
---------------------------------------------|
-0-------------------------------------------|
-0-------------------------------------------|
-0-------------------------------------------|


gt1
----------------^----------10----------------|
---^----------12-10-------------10-----------|
-12-11-*-11-*-------*-11-*----*----*-11-*----|
-------0----0-------0----0----0----0----0----|
---------------------------------------------|
---------------------------------------------|
gt2
--------------------------------------------|
----------------^----------11---------------|
---^----------14-11-------------11----------|
-14-12-*-12-*-------*-12-*----*----*-12-*---|
-------0----0-------0----0----0----0----0---|
--------------------------------------------|
gt3
---------------------------------------------|
---------------------------------------------|
---------------------------------------------|
-4-------------------------------------------|
-4-------------------------------------------|
-4-------------------------------------------|



gt1
----------------^----------------------------|
---^----------12-10-------------10-----------|
-12-11-*-11-*-------*-11-*-12-*----*-11-*----|
-------0----0-------0----0----0----0----0----|
---------------------------------------------|
---------------------------------------------|
gt2
--------------------------------------------|
----------------^---------------------------|
---^----------14-11-------------11----------|
-14-12-*-12-*-------*-12-*-14-*----*-12-*---|
-------0----0-------0----0----0----0----0---|
--------------------------------------------|
gt3
---------------------------------------------|
---------------------------------------------|
---------------------------------------------|
-5-------------------------------------------|
-5-------------------------------------------|
-5-------------------------------------------|

gt1
   ^
-14-10----------^---------------14---10------|
---------10---12-10---10---12----------------|
-------*----*-------*----*----*----*----*----|
-------0----0-------0----0----0----0----0----|
---------------------------------------------|
---------------------------------------------|
gt2
--------------------------------------------|
----------------^---------------------------|
---^----------14-11-------------11----------|
-14-12-*-12-*-------*-12-*-14-*----*-12-*---|
-------0----0-------0----0----0----0----0---|
--------------------------------------------|
gt3
---------------------------------------------|
---------------------------------------------|
---------------------------------------------|
-0-------------------------------------------|
-0-------------------------------------------|
-0-------------------------------------------|


gt1
----------------^----------------------------|
---^----------12-10-------------10-----------|
-12-11-*-11-*-------*-11-*-12-*----*-11-*----|
-------0----0-------0----0----0----0----0----|
---------------------------------------------|
---------------------------------------------|
gt2
--------------------------------------------|
----------------^---------------------------|
---^----------14-11-------------11----------|
-14-12-*-12-*-------*-12-*-14-*----*-12-*---|
-------0----0-------0----0----0----0----0---|
--------------------------------------------|
gt3
---------------------------------------------|
---------------------------------------------|
---------------------------------------------|
-0-------------------------------------------|
-0-------------------------------------------|
-0-------------------------------------------|


gt1
----------------^----------10----------------|
---^----------12-10-------------10-----------|
-12-11-*-11-*-------*-11-*----*----*-11-*----|
-------0----0-------0----0----0----0----0----|
---------------------------------------------|
---------------------------------------------|
gt2
--------------------------------------------|
----------------^----------11---------------|
---^----------14-11-------------11----------|
-14-12-*-12-*-------*-12-*----*----*-12-*---|
-------0----0-------0----0----0----0----0---|
--------------------------------------------|
gt3
---------------------------------------------|
---------------------------------------------|
---------------------------------------------|
-4-------------------------------------------|
-4-------------------------------------------|
-4-------------------------------------------|



gt1
----------------^-------------------------10-----------|
---^----------12-10-------------10---------------------|
-12-11-*-11-*-------*-11-*-12-*----*-11-*--------------|
-------0----0-------0----0----0----0----0--------------|
-------------------------------------------------------|
-------------------------------------------------------|
gt2
-------------------------------------------------------|
----------------^--------------------------------------|
---^----------14-11-------------11---------------------|
-14-12-*-12-*-------*-12-*-14-*----*-12-*-12-----------|
-------0----0-------0----0----0----0----0--------------|
-------------------------------------------------------|
gt3
-------------------------------------------------------|
-------------------------------------------------------|
-------------------------------------------------------|
-5------------------------------------------0----------|
-5------------------------------------------0----------|
-5------------------------------------------0----------|



Добавлено: 01.08.2013
Другие материалы по этой песне:

Страница создана 26.02.2012
http://primanota.ru/august-burns-red/cutting-the-ties-chords.htm
Привет, Гость.
Предлагаем пройти революционный курс по гитаре.
Подарок от PrimaNota.Ru, забирай!