PrimaNota.ru - самый крупный в мире бесплатный архив песенных текстов, аккордов, табулатур и нот


August Burns Red - Empire - таба, драм-таба, видео

Регистрация Запомнить меня
Войти через:  Facebook Google Twitter Vk Yandex Mail.ru

August Burns Red - Empire - таба, драм-таба, видео

Печатать
Просмотров: 223
[Empire]
[August Burns Red]
[Leveler]

Tunging: CGCFAD (Drop C / 1 Step Down From Drop D)
joshuaoliveira@hotmail.com

yay more abr. its been a while! this is right from the youtube link they
posted on there fb. the albums not out yet, there might be a different
album version, but this is good till then :P

[Riff 1] - [00:04] - [00:14] - [10x]
- ---------------------------------|
- ---------------------------------|
- ---------------------------------|
- ---------------------------------|
- -1---0h1---5---------------------|
- ---0-----0---0-------------------|
PM   .     .   .

[Riff 2] - [00:14] - [00:16]
- -------------------------------------------|
- -------------------------------------------|
- -------------------------------------------|
- -0~----------------------------------------|
- -0~----------0-0-0-0---0---0-0-0-0-0-0-----|
- -0~----------0-0-0-0---0---0-0-0-0-0-0-----|
PM             .........................

----------------------------------------------------------------------------

[Riff 3] - [00:16] - [00:30] - [2x]
- --------------------------------------------------------------|
- --------------------------------------------------------------|
- --------------------------------------------------------------|
- --------------------------------------------------------------|
- -0-0-0-0---0---0-0-0-0-0-0---0-0-0-0-----0-------0-0-0-0-0-0--|
- -0-0-0-0---0---0-0-0-0-0-0---0-0-0-0-----0-------0-0-0-0-0-0--|
PM ...........................................................

- -------------------------------------------------|
- -------------------------------------------------|
- -------------------------------------------------|
- -------------------------------------------------|
- ---0---0-0-0-0-0-0---0-0-0-0-----0---0-0---0-0-0-|
- ---0---0-0-0-0-0-0---0-0-0-0-----0---0-0---0-0-0-|
PM ...............................................

[Riff 4] - [00:16] - [00:23] - [2x]
- -----------------------------------------------------------|
- -----------------------------------------------------------|
- -----------------------------------------------------------|
- -----------7p0-----------7p0-----------7p0-----------10p0--|
- -8p0-7h8p0-----8p0-7h8p0-----8p0-7h8p0-----8p0-7h8p0-------|
- -----------------------------------------------------------|

[Riff 5] - [00:23] - [00:30]
- --------------------------------------------------------------------|
- --------------------------------------------------------------------|
- --------------------------------------------------------------------|
- -------------8p0-------------12p0-------------8p0---------12p0-10p0-|
- -12p0-8h12p0-----12p0-8h12p0------12p0-8h12p0-----12p0h8------------|
- --------------------------------------------------------------------|

- --------------------------------------------------------------------|
- --------------------------------------------------------------------|
- --------------------------------------------------------------------|
- -------------8p0-------------12p0-------------8p0---------12p0-15p0-|
- -12p0-8h12p0-----12p0-8h12p0------12p0-8h12p0-----12p0h8------------|
- --------------------------------------------------------------------|

----------------------------------------------------------------------------

[Riff 6a] - [00:30] - [00:48| - [2x]
- -----------------------------------------------------------------|
- -----------------------------------------------------------------|
- -----------------------------------------------------------------|
- -----------------------------------------------------8p0-7p0-----|
- ---------5/7---------5/7-8p0-7p0---------5/7-8p0-7p0---------8p0-|
- -8p0-7h8-----8p0-7h8-------------8p0-7h8-------------------------|

- --------------------------------------------------------------------|
- --------------------------------------------------------------------|
- --------------------------------------------------------------------|
- ---------------------------------------------8p0-7p0----------------|
- ---------5/7---------5/7-8p0-7p0---------5/7---------10h12-0h7-0h10-|
- -8p0-7h8-----8p0-7h8-------------8p0-7h8----------------------------|

[Riff 6b] - [00:30] - [00:48] - [2x]
- --------------------------------------------|
- --------------------------------------------|
- --------------------------------------------|
- --------------------------------------------|
- ------------8/10------------8/10-12p0-10p0--|
- -12p0-10h12------12p0-10h12-----------------|

- ------------------------------------------|
- ------------------------------------------|
- ------------------------------------------|
- ---------------------------12p0-10p0------|
- ------------8/10-12p0-10p0-----------12p0-|
- -12p0-10h12-------------------------------|

- -------------------------------------------|
- -------------------------------------------|
- -------------------------------------------|
- -------------------------------------------|
- ------------8/10------------8/10-12p0-10p0-|
- -12p0-10h12------12p0-10h12----------------|

- --------------------------------------------|
- --------------------------------------------|
- --------------------------------------------|
- --------------------------------------------|
- ------------8/10------------------12--10h13-|
- -12p0-10h12------12p0-10h12-10h12-----------|

----------------------------------------------------------------------------

[Riff 7a] - [00:48] - [01:05]
- ------------------------------------------------------------------------|
- ------------------------------------------------------------------------|
- ------------------------------------------------------------------------|
- -0------------------------------0---------------12p8p0------------[7br]-|
- -0---0-0-0-0-0---0000---0-------0---0-0-0-0-0----------12p8p0-----------|
- -0---0-0-0-0-0---0000---0---7b--0---0-0-0-0-0-----------------11--------|
PM     ....................           .........
-
-
- ------------------------------------------------------------------------|
- ------------------------------------------------------------------------|
- ------------------------------------------------------------------------|
- -0------------------------------0---------------12p8p0------------------|
- -0---0-0-0-0-0---0000---0---5b--0---0-0-0-0-0----------12p8p0-----[9br]-|
- -0---0-0-0-0-0---0000---0-------0---0-0-0-0-0-----------------11--------|
PM     ....................           .........


- --------------------------------------------------------------------|
- --------------------------------------------------------------------|
- --------------------------------------------------------------------|
- -0------------------------------0---------------8p7p0---------------|
- -0---0-0-0-0-0---0000---0-------0---0-0-0-0-0---------8p7p0-5---8---|
- -0---0-0-0-0-0---0000---0---7b--0---0-0-0-0-0-----------------------|
PM     ....................           .........
-
- --------------------------------------------------------------------|
- --------------------------------------------------------------------|
- --------------------------------------------------------------------|
- -0------------------------------0---------------8p7p0---------------|
- -0---0-0-0-0-0---0000---0---5b--0---0-0-0-0-0---------8p7p0-8---12--|
- -0---0-0-0-0-0---0000---0-------0---0-0-0-0-0-----------------------|
PM     ....................           .........


- ------------------------------------------------------------------------|
- ------------------------------------------------------------------------|
- ------------------------------------------------------------------------|
- -0------------------------------0---------------12p8p0------------[7br]-|
- -0---0-0-0-0-0---0000---0-------0---0-0-0-0-0----------12p8p0-----------|
- -0---0-0-0-0-0---0000---0---7b--0---0-0-0-0-0-----------------11--------|
PM     ....................           .........
-
-
- ------------------------------------------------------------------------|
- ------------------------------------------------------------------------|
- ------------------------------------------------------------------------|
- -0------------------------------0---------------12p8p0------------------|
- -0---0-0-0-0-0---0000---0---5b--0---0-0-0-0-0----------12p8p0-----[9br]-|
- -0---0-0-0-0-0---0000---0-------0---0-0-0-0-0-----------------11--------|
PM     ....................           .........


- --------------------------------------------------------------------|
- --------------------------------------------------------------------|
- --------------------------------------------------------------------|
- -0------------------------------0---------------8p7p0-------0-------|
- -0---0-0-0-0-0---0000---0-------0---0-0-0-0-0---------8p7p0-0-------|
- -0---0-0-0-0-0---0000---0---7b--0---0-0-0-0-0---------------0-------|
PM     ....................           .........
-
- --------------------------------------------------------------------|
- --------------------------------------------------------------------|
- --------------------------------------------------------------------|
- -0------------------------------0---------------8p7p0-------0-------|
- -0---0-0-0-0-0---0000---0---5b--0---0-0-0-0-0---------8p7p0-0-------|
- -0---0-0-0-0-0---0000---0-------0---0-0-0-0-0---------------0-------|
PM     ....................           .........

----------------------------------------------------------------------------

[Riff 8] - [01:05] - [01:14]
- --------------------------------------------------6p5--------------|
- ---------------------------------6h8-------10p6-------8p6-8p6------|
- -----------------------3h5p3-5/7-------7----------------------7/10-|
- -3h5-------7p3---3h5-----------------------------------------------|
- -------5-------------5---------------------------------------------|
- -----0---0-----0---------------------0---0------0------------------|
PM     .   .     .                     .   .      .

- ---------------------------------------------------------------------|
- ---------------------------------6h8-------10p6----------------------|
- -----------------------3h5p3-5/7-------7----------7-7-7-10-10-10-5-5-|
- -3h5-------7p3---3h5------------------------------x-x-x-x--x--x--x-x-|
- -------5-------------5----------------------------5-5-5-8--8--8--3-3-|
- -----0---0-----0---------------------0---0------0--------------------|
PM     .   .     .                     .   .      .

- -----------------------|
- -----------------------|
- -10-10-10-14-14-14-9-9-|
- -x--x--x--x--x--x--x-x-| (Harmony for end)
- -8--8--8--12-12-12-7-7-|
- -----------------------|

[Riff 9a] - [01:14] - [01:23]
- --------------------------------------------------5h6p5--------------|
- ---------------------------------6h8-------10p6---------8p6-8p6------|
- -----------------------3h5p3-5/7-------7------------------------7/10-|
- -3h5-------7p3---3h5-------------------------------------------------|
- -------5-------------5-----------------------------------------------|
- -----0---0-----0---------------------0---0------0--------------------|
PM     .   .     .                     .   .      .

- --------------------------------------------------5-5-5-5/8~------|
- ---------------------------------6h8-------10p6-------------------|
- -----------------------3h5p3-5/7-------7--------------------------|
- -3h5-------7p3---3h5----------------------------------------------|
- -------5-------------5--------------------------------------------|
- -----0---0-----0---------------------0---0------0-----------------|
PM     .   .     .                     .   .      .

[Riff 9b] - [01:14] - [01:23]
- -------------------------------------------------8h10p8------------------|
- --------------------------------10h11-----15p10--------11p10-11p10-------|
- ---------------------7h9p7-9/10--------10--------------------------10/14-|
- -7h8-----12p7--7h8-------------------------------------------------------|
- ------8------------8-----------------------------------------------------|
- ----0---0----0------------------------0--0-----0-------------------------|
PM    .   .    .                        .  .     .

- --------------------------------------------------10-10-10-10/13~-----|
- ---------------------------------10h11-----15p10----------------------|
- ----------------------7h9p7-9/10--------10----------------------------|
- -7h8------12p7--7h8---------------------------------------------------|
- -------8------------8-------------------------------------------------|
- -----0---0----0------------------------0--0-----0---------------------|
PM     .   .    .                        .  .     .

----------------------------------------------------------------------------

[Riff 10, Guitar 1 & 2] - [01:23] - [01:40]
- -----------------------------------------------------------------|
- -----------------------------------------------------------------|
- ---------10101010\-7---10--10107-5-5-5-5-5-5-5-5-5-5-5-5-5-5-5-5-|
- -0-------x-x-x-x---x---x---x-x-x-x-x-x-x-x-x-x-x-x-x-x-x-x-x-x-x-|
- -0---0-0-8-8-8-8\--5---8---8-8-5-3-3-3-3-3-3-3-3-3-3-3-3-3-3-3-3-|
- -0---0-0---------------------------------------------------------|
PM     ...
-
- ------------------------------------------------------------------|
- ---------------------------------5-5-5-5-5-5-6-6-6-6-101010101010-|
- ---------7-7-7-7\--3---3---3-3---5-5-5-5-5-5-5-5-5-5-5-5-5-5-5-5--|
- -0-------x-x-x-x---x---x---x-x------------------------------------|
- -0---0-0-5-5-5-5\--1---1---1-1------------------------------------|
- -0---0-0----------------------------------------------------------|
PM     ...


- -----------------------------------------------------------------|
- -----------------------------------------------------------------|
- ---------10101010\-7---10--10101010101014--14145---5-5-9---9-9-9-|
- -0-------x-x-x-x---x---x---x-x-x-x-x-x-x---x-x-x---x-x-x---x-x-x-|
- -0---0-0-8-8-8-8\--5---8---8-8-8-8-8-8-12--12123---3-3-7---7-7-7-|
- -0---0-0---------------------------------------------------------|
PM     ...
-
- ------------------------------------------------------------------|
- ------------------------------------------------------------------|
- ---------7-7-7-7\--3---3---3-3---7-7-7-10--10105---5-5-12--121212-|
- -0-------x-x-x-x---x---x---x-x---x-x-x-x---x-x-x---x-x-x---x-x-x--|
- -0---0-0-5-5-5-5\--1---1---1-1---5-5-5-8---8-8-3---3-3-10--101010-|
- -0---0-0----------------------------------------------------------|
PM     ...


- -----------------------------------------------------------------|
- -----------------------------------------------------------------|
- ---------10101010\-7---10--10107-5-5-5-5-5-5-5-5-5-5-5-5-5-5-5-5-|
- ---------x-x-x-x---x---x---x-x-x-x-x-x-x-x-x-x-x-x-x-x-x-x-x-x-x-|
- -0---0---8-8-8-8\--5---8---8-8-5-3-3-3-3-3-3-3-3-3-3-3-3-3-3-3-3-|
- -0---0-----------------------------------------------------------|
PM .....
-
- ------------------------------------------------------------------|
- ---------------------------------5-5-5-5-5-5-6-6-6-6-101010101010-|
- ---------7-7-7-7\--3---3---3-3---5-5-5-5-5-5-5-5-5-5-5-5-5-5-5-5--|
- ---------x-x-x-x---x---x---x-x------------------------------------|
- -0---0---5-5-5-5\--1---1---1-1------------------------------------|
- -0---0------------------------------------------------------------|
PM .....


- -----------------------------------------------------------------|
- -----------------------------------------------------------------|
- ---------10101010\-7---10--10101010101014--14145---5-5-9---9-9-9-|
- ---------x-x-x-x---x---x---x-x-x-x-x-x-x---x-x-x---x-x-x---x-x-x-|
- -0---0---8-8-8-8\--5---8---8-8-8-8-8-8-12--12123---3-3-7---7-7-7-|
- -0---0-----------------------------------------------------------|
PM .....
-
- ------------------------------------------------------------------|
- ------------------------------------------------------------------|
- ---------7-7-7-7\--3---3---3-3---7-7-7-10--10105---5-5-12--121212-|
- ---------x-x-x-x---x---x---x-x---x-x-x-x---x-x-x---x-x-x---x-x-x--|
- -0---0---5-5-5-5\--1---1---1-1---5-5-5-8---8-8-3---3-3-10--101010-|
- -0---0------------------------------------------------------------|
PM .....

----------------------------------------------------------------------------

[Riff 11, Guitar 1 & 2] - [01:40] - [01:43]
- ---------|
- ---------|
- -10~-----|
- -x-------|
- -8~------|
- -0~------|
-
- ---------|
- ---------|
- -7~------|
- -x-------|
- -5~------|
- -0~------|

----------------------------------------------------------------------------

guh im so bad at these parts -_- theres a lead and a rhythm. could be even
3 guitars tracked.. i couldnt hear it very well so i just checked with some
live videos n tinkered all day with it, here what i got :P the octave
chords are right you can see him do it live. i can never get the other see
tho..

[Riff 12] - [01:43] - [01:59] - [2x]
- -------8--------------8--5-6-5-------5--------------3--5-3----|
- ----6-----6--------6-----6-6-6----6-----6--------6---------6--|
- -7----------7------------------5----------5---5---------------|
- ----------------8---------------------------------------------|
- --------------------------------------------------------------|
- --------------------------------------------------------------|

[Riff 13] - [01:43] - [01:59] - [2x]
- ------------------------------------------------------|
- ------------------------------------------------------|
- -10-10-10-10-101010-10-10-10-1010-5-5-5-5-555-5-5-55--|
- -x--x--x--x--x-x-x--x--x--x--x-x--x-x-x-x-xxx-x-x-xx--|
- -8--8--8--8--8-8-8--8--8--8--8-8--3-3-3-3-333-3-3-33--|
- ------------------------------------------------------|

end with:

- -----------------       -----------------|
- -----------------       -----------------|
- -----------------  OR?  -5---------------|
- -5---------------       -2-2-2-2-2-2-2-2-|
- -3-3-3-3-3-3-3-3-       -3-3-3-3-3-3-3-3-|
- -2-2-2-2-2-2-2-2-       -----------------|
PM   .............           .............

you could always just play this next part instead of the lead :P
tho im not sure about any of these chords either.. -_-

[Riff 14] - [01:59] - [02:12] - [2x]
- ---------------------------|
- -6-------------------------|
- -7-------------------------|
- -7-12-7-5------------------| (strum for two bars each)
- -5-8--3-3------------------|
- ---8--3-2------------------|

end with:

- ----------------------------------|
- ----------------------------------|
- -14-14-14-14-14141212121212121212-|
- -x--x--x--x--x-x-x-x-x-x-x-x-x-x--|
- -12-12-12-12-12121010101010101010-|
- ----------------------------------|
-
- ----------------------------------|
- ----------------------------------|
- ----------------------------------|
- -7--7--7--7--7-7-5-----------\\\\-|
- -3--3--3--3--3-3-3-3-3-3-3-3-\\\\-|
- -3--3--3--3--3-3-2-2-2-2-2-2-\\\\-|

----------------------------------------------------------------------------

[Riff 15a] - [02:14] - [02:31] - [2x]
- ----------------------------|
- -6------13------------------|
- -7------12------------------|
- -7-12-7-10------------------| (strum fast for two bars each)
- -5-8--3-10------------------|
- ---8--3-10------------------|

[Riff 15b] - [02:14] - [02:31]
- -------5h6p5------------------8-------------------------------------|
- -----6-------6--------------------11---10h11h13---------------------|
- -5h7-----------5-7/10-10------------------------10--10-10/14-14/15--|
- --------------------------------8----8------------------------------|
- --------------------------------------------------------------------|
- --------------------------------------------------------------------|
PM                                .    .

- -------------------------------------8-|
- -----------------------------10p8h10---|
- ------------------10p9h10h12-----------|
- -------7h8-7h8h10----------------------|
- -8p7h8---------------------------------|
- ---------------------------------------|

- ------8-10h12h13/20-15-----------------------|
- -8h10-------------------18-17-15----15-------|
- ---------------------------------17----17----|
- ------------------------------------------14-|
- ---------------------------------------------|
- ---------------------------------------------|

- ----------------------------------------------|
- ------------------------10h11p10--------------|
- -7h10/12-10h12p10----10----------10-9h10p9----|
- ------------------12-----------------------10-|
- ----------------------------------------------|
- ----------------------------------------------|

- ---------------------------------|
- ---------6h8p6-------------------|
- -----5h7-------7-5h7p5-----------|
- -7h8-------------------8-7h8p7---|
- -------------------------------8-|
- ---------------------------------|

- ----------------------------------------------------------------------|
- ----------------------------------------------------------------------|
- ----------------------------------------------------------------------|
- ---------8p0-7h8p0-7p0-5h7p0-3p0-3p0-10p0-8p0-7/8p0-7p0-10/12p0-15p14-|
- -5p0-3p0--------------------------------------------------------------|
- ----------------------------------------------------------------------|

----------------------------------------------------------------------------

[Riff 16] - [02:31] - [02:47] - [2x]
- --------------------------------------------------------------|
- --------------------------------------------------------------|
- --------------------------------------------------------------|
- --------------------------------------------------------------|
- -0-------------------------0---0-0-0-0---0-----------0-0---0--|
- -0-------------------------0---0-0-0-0---0-----------0-0---0--|
PM ...........................................................

- -------------------------------------------------------------|
- -------------------------------------------------------------|
- -------------------------------------------------------------|
- -------------------------------------------------------------|
- ---0-0---0---------------------------------------------------|
- ---0-0---0---------------------------------------------------|
PM ...........................................................

[Riff 17] - [02:31] - [03:03] - [4x]
- ----------------------------------------------------------------------
- ----------------------------------------------------------------------
- ----------------------------------------------------------------------
- ----------------------------------------------------------------------
- -3p0-10p0-8p0-7h8p0-7p0-5h7p0-3p0-3p0-10p0-8p0-7h8p0-7p0-10h12p0-15p0-
- ----------------------------------------------------------------------

- ----------------------------------|
- ----------------------------------|
- ----------------------------------|
- ----------------------------------|
- -3p0-10p0-8p0-7h8p0-7p0-5h7p0-3p0-|
- ----------------------------------|

the first ending is this:

- -----------------------------------------------|
- ---------------13------------15-15-13-13-------|
- -------12h14--------15-15-15-------------------|
- -15p14-----------------------------------15-15-|
- -----------------------------------------------|
- -------------0----0----------------------------|
PM             .    .
-
- -----------------------------------------------|
- --------------10------------11-11-10-10--------|
- -------9h10--------12-12-12--------------------|
- -12p10----------------------------------12-12--|
- -----------------------------------------------|
- ------------0----0-----------------------------|
PM            .    .

the second ending is this:

- -----------------------------------------------|
- ---------------13------------15-15-------------|
- -------12h14--------15-15-15-------12-12-15-15-|
- -15p14-----------------------------------------|
- -----------------------------------------------|
- -------------0----0----------------------------|
PM             .    .
-
- ----------------------------------10-10-13-13--|
- --------------10------------11-11--------------|
- -------9h10--------12-12-12--------------------|
- -12p10-----------------------------------------|
- -----------------------------------------------|
- ------------0----0-----------------------------|
PM            .    .

each played twice.

[Riff 18] - [02:47] - [03:03] - [2x]
- ------------------------------------------------------------------|
- ------------------------------------------------------------------|
- ------------------------------------------------------------------|
- ------------------------------------------------------------------|
- -5-5-----5-5-----5-5-----5-5-----5-5-----5-5-----5-5-----5-5------|
- -----0-0-----0-0-----0-0-----0-0-----0-0-----0-0-----0-0-----0-0--|
PM ...............................................................

- -----------------------------------------------------------------|
- -----------------------------------------------------------------|
- -----------------------------------------------------------------|
- -----------------------------------------------------------------|
- -----------------------------------------------------------------|
- -8-8-8-8-8-8-8-8-8-8-8-8-8-8-8-8---------------------------------|
PM ...............................................................

----------------------------------------------------------------------------

[Riff 19] - [03:03] - [03:18]
- ---------------------------------|
- ---------------------------------|
- ---------------------------------|
- -0-------8---3---0---0---8---3---|
- -0-------8---3---0---0---8---3---|
- -0-------8---3---0---0---8---3---|

[Riff 4] - [03:03] - [03:10] - [2x]
[Riff 5] - [03:10] - [03:18]

----------------------------------------------------------------------------

[Riff 20] - [03:18] - [03:33]
- --------------------------------------------------------------|
- --------------------------------------------------------------|
- --------------------------------------------------------------|
- --------------------------------------------------------------|
- -0-0-0-0~--0~--0-0-0-0-0-0~--0-0-0-0~----0-------0-0-0-0-0-0~-|
- -0-0-0-0~--0~--0-0-0-0-0-0~--0-0-0-0~----0-------0-0-0-0-0-0~-|
PM ...........................................................

- -------------------------------------------------|
- -------------------------------------------------|
- -------------------------------------------------|
- -------------------------------------------------|
- ---0~--0-0-0-0-0-0~--0-0-0-0~----0~--0-0~--0-0-0-|
- ---0~--0-0-0-0-0-0~--0-0-0-0~----0~--0-0~--0-0-0-|
PM ...............................................

- --------------------------------------------------------------|
- --------------------------------------------------------------|
- --------------------------------------------------------------|
- --------------------------------------------------------------|
- -0-0-0-0~--0~--0-0-0-0-0-0~--0-0-0-0~----0-------0-0-0-0-0-0~-|
- -0-0-0-0~--0~--0-0-0-0-0-0~--0-0-0-0~----0-------0-0-0-0-0-0~-|
PM ...........................................................

- -----------------------------------------------------|
- -----------------------------------------------------|
- -----------------------------------------------------|
- -------------------------------------12\-----/7------|
- ---0~--0-0-0-0-0-0~--0-0-0-0~----0---12\-----/7------|
- ---0~--0-0-0-0-0-0~--0-0-0-0~----0---12\-----/7------|
PM .................................

----------------------------------------------------------------------------

[Riff 21] - [03:33] - [03:52]
- -------------------------------------------------------------|
- -------------------------------------------------------------|
- -------------------------------------------------------------|
- -------------------------------------------------------------|
- -0-0-0-0---0---0-0-0-0-0-0---0-0-0-0-----0-------0-0-8-8-8-8-|
- -0-0-0-0---0---0-0-0-0-0-0---0-0-0-0-----0-------0-0-8-8-8-8-|
PM ...........................................................

- -------------------------------------------------|
- -------------------------------------------------|
- -------------------------------------------------|
- -------------------------------------------------|
- ---8---8-8-8-8-8-8---3-3-3-3-----3---3-3---3-3-3-|
- ---8---8-8-8-8-8-8---3-3-3-3-----3---3-3---3-3-3-|
PM ...............................................

[Riff 4] - [03:33] - [03:41] - [2x]
[Riff 5] - [03:41] - [03:52]

----------------------------------------------------------------------------

[Riff 22] - [03:52] - [03:53]
- -----|
- -----|
- -----|
- -0---|
- -0---|
- -0---|

----------------------------------------------------------------------------

[Symbols]

PM... Palm Mute notes with (...) under them
h     Hammer On
p     Pull Off
/     Slide Up
\     Slide Down
b     Bend
r     Release
~     Let Ring
x     Dead Note
\\\\  Pickslide
[ ]   Pinch Harmonic

:)
Добавлено: 31.07.2012
Другие материалы по этой песне:

Страница создана 23.02.2012
http://primanota.ru/august-burns-red/empire-chords.htm
Привет, Гость.
Предлагаем пройти революционный курс по гитаре.
Подарок от PrimaNota.Ru, забирай!