PrimaNota.ru - самый крупный в мире бесплатный архив песенных текстов, аккордов, табулатур и нот


Arch Enemy - The Last Enemy - текст песни, таба, видео

Регистрация Запомнить меня
Войти через:  Facebook Google Twitter Vk Yandex Mail.ru

Arch Enemy - The Last Enemy - текст песни, таба, видео

Печатать
Просмотров: 220
Авторы музыки: Michael Amott, Christopher Amott
Авторы текста: Angela Gossow
Just the intro for now I will add the rest later.

  [  -  -  -  -  -  -  -  -  -  -  -  -  -  -  -  -  -  -  -  -  -
C |-----------------------------|---------------------------------|
G |-----------------------------|---------------------------------|
Eb|-----------------------------|---------------------------------|
Bb|-----------------------------|---------------------------------|
F |-7---------8-----------------|---------------------------------|
C |---0-0-0-0---0-0-0-0-0-0-0-0-|-0-0-0-0-0-0-0-0-0-0-0-0-0-0-0-0-|

  -  -  -  -  -  -  -  -  -  -   -  -  -  -  -  -  -  -  -  -  -  - ] X2 2nd
C |-------------------------------|---------------------------------| time
G |-------------------------------|---------------------------------| play 
Eb|-------------------------------|---------------------------------| next 
Bb|-------------------------------|---------------------------------| bar 
F |-13---------10-----------------|-----------------6-6-3-3-6-6-3-3-| then 
C |----0-0-0-0----0-0-0-0-0-0-0-0-|-0-0-0-0-0-0-0-0-----------------| carry
                                                                      on! 
                                [  -  -  -  -  -  -  -  -  -  -  - 
C |-----------------------------|---------------------------------|
G |-----------------------------|---------------------------------|
Eb|-----------------------------|---------------------------------|
Bb|-----------------------------|---------------------------------|
F |-6-6-4-4-6-6-4-4-------------|-7---------8---------------------|
C |-----------------7-----------|---0-0-0-0---0-0-0-0-0-0-0-0-----|

   -  -  -  -  -  -  -  -  -  -  -  -  -  -  -  -  -  -  -  -  -  -  -
C |---------------------------------|---------------------------------|
G |---------------------------------|---------------------------------|
Eb|---------------------------------|---------------------------------|
Bb|---------------------------------|---------------------------------|
F |---------------------------------|-13---------10-------------------|
C |-0-0-0-0-0-0-0-0-0-0-0-0-0-0-0-0-|----0-0-0-0----0-0-0-0-0-0-0-0---|

   -  -  -  -  -  -  -  -  -  -  -  ] X2
C |---------------------------------|---------------------------------|
G |---------------------------------|---------------------------------|
Eb|---------------------------------|---------------------------------|
Bb|---------------------------------|---------------------------------|
F |-----------------6-6-3-3-6-6-3-3-|-6-6-3-3-6-6-3-3-5-5-2-2-5-5-2-2-|
C |-0-0-0-0-0-0-0-0-----------------|---------------------------------|


Not easy so enjoy learning =]

Email: matt.8768@yahoo.co.uk 

Email me for any questions/comments will reply ASAP =] 
Добавлено: 13.07.2012
Другие материалы по этой песне:

Страница создана 26.02.2012
http://primanota.ru/arch-enemy/the-last-enemy-chords.htm
Привет, Гость.
Предлагаем пройти революционный курс по гитаре.
Подарок от PrimaNota.Ru, забирай!