PrimaNota.ru - самый крупный в мире бесплатный архив песенных текстов, аккордов, табулатур и нот


Arch Enemy - Intermezzo Liberte - таба, видео

Регистрация Запомнить меня
Войти через:  Facebook Google Twitter Vk Yandex Mail.ru

Arch Enemy - Intermezzo Liberte - таба, видео

Печатать
Просмотров: 434
Уроки эстрадного вокала в Санкт-Петербурге
Авторы музыки: Michael Amott

-------------------------------------------------------------------------------
 Intermezzo Liberte – Arch Enemy
-------------------------------------------------------------------------------
Tabbed by: konkordmusk
Email: konkordmusk@yahoo.com

Tuning: C Standard

|--/9--7-9-11-9-11b12b11----9h11p9—7h9p7--------------------------------------|
|-----------------------------------------------------------9-7/9-------------|
|-----------------------------------------------------------------------------|
|-----------------------------------------------------------------------------|
|-----------------------------------------------------------------------------|
|-----------------------------------------------------------------------------|

|-----------------------------------------------------------------------------|
|---9-12-9h12p9-7-5/7---5-7-9-5-----------------------------------------------|
|-----------------------------------------4/6—4b6-----------------------------|
|-----------------------------------------------------------------------------|
|-----------------------------------------------------------------------------|
|-----------------------------------------------------------------------------|

|--------------4-4-5p4p2------------5-4-5454----------------------------------|
|---2-2-4-5---------------2-2-4-5---------------------------------------------|
|-----------------------------------------------------------------------------|
|-----------------------------------------------------------------------------|
|-----------------------------------------------------------------------------|
|-----------------------------------------------------------------------------|

|----------------------16-16h17p16p14-------------------19b21b19--------------|
|--2/14-14-16-17-------------------------14-14-16-17--------------------------|
|-----------------------------------------------------------------------------|
|-----------------------------------------------------------------------------|
|-----------------------------------------------------------------------------|
|-----------------------------------------------------------------------------|



|-------------7-7h8p7p5-----------7b9b7b9—10-8-7------------------------------|
|--5-5-7-8------------------3-5-7---------------------------------------------|
|-----------------------------------------------------------------------------|
|-----------------------------------------------------------------------------|
|-----------------------------------------------------------------------------|
|-----------------------------------------------------------------------------|

|--------------7-7h8p7-5------------------------------------------------------|
|-----------------------------------------------------------------------------|
|--5-5-7-8---------------------8-8-10-11-8-13b14b13-11-13---------------------|
|-----------------------------------------------------------------------------|
|-----------------------------------------------------------------------------|
|-----------------------------------------------------------------------------|

|------12-10-8-10-12-8------------------------------------------------------------|
|-10------------------------10-----12-13-15-12----17b18b17-15-17------------------|
|---------------------------------------------------------------------------------|
|---------------------------------------------------------------------------------|
|---------------------------------------------------------------------------------|
|---------------------------------------------------------------------------------|

|---17-19-20-17---17-19-20b22—19p17h19----------------------------------------|
|-----------------------------------------------------------------------------|
|-----------------------------------------------------------------------------|
|-----------------------------------------------------------------------------|
|-----------------------------------------------------------------------------|
|-----------------------------------------------------------------------------|

|-------------------------------------------------------------------------------------|
|-------------------------------------------------------------------------------------|
|---------(couldn't figure this solo out...yet)---------------------------------------|
|-------------------------------------------------------------------------------------|
|-------------------------------------------------------------------------------------|
|-------------------------------------------------------------------------------------|


|-------------7-7h8p7p5-----------7b9b7b9-7p5h7-------------------------------|
|--5-5-7-8------------------3-5-7---------------------------------------------|
|-----------------------------------------------------------------------------|
|-----------------------------------------------------------------------------|
|-----------------------------------------------------------------------------|
|-----------------------------------------------------------------------------|

|--------------7-7h8p7-5------------------------------------------------------|
|-----------------------------------------------------------------------------|
|--5-5-7-8-------------------------8-8-10-11-8--------------------------------|
|-----------------------------------------------------------------------------|
|-----------------------------------------------------------------------------|
|-----------------------------------------------------------------------------|


|------------------------------------------------------------------------------------|
|------------------------------------------------------------------------------------|
|------------(couldn't figure this part either)--------------------------------------|
|------------------------------------------------------------------------------------|
|------------------------------------------------------------------------------------|
|------------------------------------------------------------------------------------|

Well, it was one hell of a song, and I had fun learning it and tabbing it out for you guys!
Добавлено: 23.05.2012
Другие материалы по этой песне:

Страница создана 07.03.2012
http://primanota.ru/arch-enemy/intermezzo-liberte-chords.htm
Привет, Гость.
Предлагаем пройти революционный курс по гитаре.
Подарок от PrimaNota.Ru, забирай!