PrimaNota.ru - самый крупный в мире бесплатный архив песенных текстов, аккордов, табулатур и нот


Arch Enemy - Time Capsule - таба, видео

Регистрация Запомнить меня
Войти через:  Facebook Google Twitter Vk Yandex Mail.ru

Arch Enemy - Time Capsule - таба, видео

Печатать
Просмотров: 117
Авторы музыки: Michael Amott, Christopher Amott

Artist: Arch Enemy
Song:   Time Capsule
Album:  Black Earth
Year:   1996
Tuning: B-E-A-D-F#-B

(Taken from the guitar pro file, I take no credit for this)

Play electric, clean. I didn't add the lead because I wasn't
sure how to line it up with the rhythm.

||------------------------|-----------------------|--------------0-----------|
||------------3-----------|-----------3-----------|-----------3-----3--------|
||*--------0--------------|--------0--------------|--------0-----------0-----|
||*-----4-----------------|-----4-----------------|-----4-----------------4--|
||---2--------------------|-----------------------|--------------------------|
||------------------------|--3--------------------|--0-----------------------|


|------------------------||-----------------------|-----------------------|
|------------------------||-----------------------|-----------3-----------|
|-----------0-----------*||-----------0-----------|--------0--------------|
|--------0--------------*||--------0--------------|-----4-----------------|
|-----4------------------||-----4-----------------|--2--------------------|
|--2---------------------||--2--------------------|-----------------------|


|--------------------------------|--------------0-----------|-----------------------|
|------------3-------------------|-----------3-----3--------|-----------------------|
|---------0----------------------|--------0-----------0-----|-----------0-----------|
|------4-------------------------|-----4-----------------4--|--------0--------------|
|--------------------------------|--------------------------|-----4-----------------|
|---3----------------------------|--0-----------------------|--2--------------------|


|-----------------------|-----------------------|--------------0-----------|
|-----------3-----------|-----------3-----------|-----------3-----3--------|
|--------0--------------|--------0--------------|--------0-----------0-----|
|-----4-----------------|-----4-----------------|-----4-----------------4--|
|--2--------------------|-----------------------|--------------------------|
|-----------------------|--3--------------------|--0-----------------------|


|-----------------------|--------------------------|----------------------------|
|-----------------------|--------------3-----------|--------------1p-0----------|
|-----------0-----------|--------0--------0--------|--------2----------2--------|
|--------0--------------|-----4-----4--------4-----|-----2-----2----------2-----|
|-----4-----------------|--2--------------------2--|--0----------------------0--|
|--2--------------------|--------------------------|----------------------------|


|--------------------------|--------------0-----------|
|--------------3-----------|--------1--------1--------|
|--------0--------0--------|-----------2--------2-----|
|-----4-----4--------4-----|-----2-----------------2--|
|--2--------------------2--|--0-----------------------|
|--------------------------|--------------------------|


|--------------------------|----------------------------|
|--------------3-----------|--------------1p-0----------|
|--------0--------0--------|--------2----------2--------|
|-----4-----4--------4-----|-----2-----2----------2-----|
|--2--------------------2--|--0----------------------0--|
|--------------------------|----------------------------|


|--------------------------|--------------0-----------|
|--------------3-----------|--------1--------1--------|
|--------0--------0--------|-----------2--------2-----|
|-----4-----4--------4-----|-----2-----------------2--|
|--2--------------------2--|--0-----------------------|
|--------------------------|--------------------------|


|-----------0-----------------0--------|-----------0-----------------0--------|
|--------------6-----------------6-----|--------------6-----------------6-----|
|--------7--------7--------7--------7--|--------5--------5--------5--------5--|
|-----7-----------------7--------------|-----7-----------------7--------------|
|--5-----------------5-----------------|--5-----------------5-----------------|
|--------------------------------------|--------------------------------------|


|-----------0-----------------0--------|-----------0-----------------0--------|
|--------------6-----------------6-----|--------------6-----------------6-----|
|--------7--------7--------7--------7--|--------7--------7--------7--------7--|
|-----7-----------------7--------------|-----7-----------------7--------------|
|--------------------------------------|--------------------------------------|
|--7-----------------7-----------------|--6-----------------6-----------------|



|-----------1-----------------1--------|-----------1-----------------1--------|
|--------3-----3-----------3-----3-----|--------3-----3-----------3-----3-----|
|-----2-----------2-----2-----------2--|-----2-----------2-----2-----------2--|
|--0-----------------0-----------------|--------------------------------------|
|--------------------------------------|--3-----------------3-----------------|
|--------------------------------------|--------------------------------------|


|-----------1-----------------1--------|--------1-----1-----1--------|
|--------3-----3-----------3-----3-----|-----------3-----3-----------|
|-----2-----------2-----2-----------2--|-----2-----------------------|
|--------------------------------------|-----------------------------|
|--2-----------------2-----------------|--1--------------------------|
|--------------------------------------|-----------------------------|

Добавлено: 06.04.2012
Другие материалы по этой песне:

Страница создана 18.03.2012
http://primanota.ru/arch-enemy/time-capsule-chords.htm
Привет, Гость.
Предлагаем пройти революционный курс по гитаре.
Подарок от PrimaNota.Ru, забирай!