PrimaNota.ru - самый крупный в мире бесплатный архив песенных текстов, аккордов, табулатур и нот


Arch Enemy - Vox Stellarum - таба, видео

Регистрация Запомнить меня
Войти через:  Facebook Google Twitter Vk Yandex Mail.ru

Arch Enemy - Vox Stellarum - таба, видео

Печатать
Просмотров: 196
Авторы музыки: Fredrik Nordström

Artist: Arch Enemy
Song:   Vox Stellarum
Album:  Stigmata
Year:   1998
Tuning: C-F-Bb-Eb-G-C

(Taken from the guitar pro file, I take no credit for this. However
the guitar pro file had the tuning as D but as far as I know, Arch
Enemy never used D so I put it in C instead. There's a little lead
played by a fourth guitar in the song but I put it in with the 3rd)

Guitars come in at about 1:02

|--------------------|--------------------------------|
|--------------------|--------------------------------|
|--------------------|--------------------------------|
|---9----------------|---9--10--10--12--12--10---9----|
|--------------------|--------------------------------|
|--------------------|--------------------------------|
|
|
|--------------------|--------------------------------|
|--12----------------|--12--13--13--15--15--13--12----|
|--------------------|--------------------------------|
|--------------------|--------------------------------|
|--------------------|--------------------------------|
|--------------------|--------------------------------|
|
|
|--------------------|--------------------------------|
|--------------------|--------------------------------|
|--------------------|--------------------------------|
|---5----------------|--------------------------------|
|---5----------------|--------------------------------|
|---3----------------|--------------------------------|

|----------------------|-------------------|-------------------|
|----------------------|-------------------|-------------------|
|----------------------|-------------------|-------------------|
|---7br---------7------|---7---------------|---9---------------|
|----------------------|-------------------|-------------------|
|----------------------|-------------------|-------------------|
|
|
|----------------------|-------------------|-------------------|
|----------------------|-------------------|--12---------------|
|--14br--------14------|--14---------------|-------------------|
|----------------------|-------------------|-------------------|
|----------------------|-------------------|-------------------|
|----------------------|-------------------|-------------------|
|
|
|----------------------|-------------------|-------------------|
|----------------------|-------------------|-------------------|
|----------------------|-------------------|-------------------|
|---3------------------|-------------------|---5---------------|
|---3------------------|-------------------|---5---------------|
|---1------------------|-------------------|---3---------------|

|--------------------------------|------------------------|----------------------------------------------|
|--------------------------------|------------------------|----------------------------------------------|
|--------------------------------|--12br--------12--------|-(12)-----------------------------------------|
|---9--10--10--12--12--10---9----|------------------------|----------------------------------------------|
|--------------------------------|------------------------|----------------------------------------------|
|--------------------------------|------------------------|----------------------------------------------|
|
|
|--------------------------------|--15br--------15--------|-(15)-----------------------------------------|
|--12--13--13--15--15--13--12----|------------------------|----------------------------------------------|
|--------------------------------|------------------------|----------------------------------------------|
|--------------------------------|------------------------|----------------------------------------------|
|--------------------------------|------------------------|----------------------------------------------|
|--------------------------------|------------------------|----------------------------------------------|
|
|
|--------------------------------|------------------------|------------------12----12-13-15-13-12--------|
|--------------------------------|------------------------|---------12-13-15----15----------------15-13--|
|--------------------------------|------------------------|----------------------------------------------|
|--------------------------------|---3--------------------|----------------------------------------------|
|--------------------------------|---3--------------------|----------------------------------------------|
|--------------------------------|---1--------------------|----------------------------------------------|




|-------------------|------------------------------|----------------------|
|-------------------|------------------------------|----------------------|
|-------------------|------------------------------|----------------------|
|---9---------------|---9--10--10--12--12--10---9--|---7br---------7------|
|-------------------|------------------------------|----------------------|
|-------------------|------------------------------|----------------------|
|
|
|-------------------|------------------------------|----------------------|
|--12---------------|--12--13--13--15--15--13--12--|----------------------|
|-------------------|------------------------------|--14br--------14------|
|-------------------|------------------------------|----------------------|
|-------------------|------------------------------|----------------------|
|-------------------|------------------------------|----------------------|
|
|
|--------------------|-----------------------------|----------------------|
|--------------------|-----------------------------|----------------------|
|--------------------|-----------------------------|----------------------|
|---5----------------|-----------------------------|---3------------------|
|---5----------------|-----------------------------|---3------------------|
|---3----------------|-----------------------------|---1------------------|



|-------------------|--------------------|--------------------------------|
|-------------------|--------------------|--------------------------------|
|-------------------|--------------------|--------------------------------|
|--(7)--------------|---9----------------|---9--10--10--12--12--10---9----|
|-------------------|--------------------|--------------------------------|
|-------------------|--------------------|--------------------------------|
|
|
|-------------------|--------------------|--------------------------------|
|-(14)--------------|--12----------------|--12--13--13--15--15--13--12----|
|-------------------|--------------------|--------------------------------|
|-------------------|--------------------|--------------------------------|
|-------------------|--------------------|--------------------------------|
|-------------------|--------------------|--------------------------------|
|
|
|-------------------|--------------------|--------------------------------|
|-------------------|--------------------|--------------------------------|
|-------------------|--------------------|--------------------------------|
|-------------------|---5----------------|--------------------------------|
|-------------------|---5----------------|--------------------------------|
|-------------------|---3----------------|--------------------------------|

|------------------------|--------------------|
|------------------------|--------------------|
|------------------------|--------------------|
|---7br---------7--------|---6~---------------|
|------------------------|--------------------|
|------------------------|--------------------|
|
|
|------------------------|--------------------|
|------------------------|--------------------|
|--14br--------14--------|--13~---------------|
|------------------------|--------------------|
|------------------------|--------------------|
|------------------------|--------------------|
|
|
|------------------------|--------------------|
|------------------------|--------------------|
|------------------------|--------------------|
|---3--------------------|---2----------------|
|---3--------------------|---2----------------|
|---1--------------------|---0----------------|
Добавлено: 25.05.2012
Другие материалы по этой песне:

Страница создана 29.03.2012
http://primanota.ru/arch-enemy/vox-stellarum-chords.htm
Привет, Гость.
Предлагаем пройти революционный курс по гитаре.
Подарок от PrimaNota.Ru, забирай!