PrimaNota.ru - самый крупный в мире бесплатный архив песенных текстов, аккордов, табулатур и нот


Arch Enemy - Web Of Lies - текст песни, таба, бас-таба, видео

Регистрация Запомнить меня
Войти через:  Facebook Google Twitter Vk Yandex Mail.ru

Arch Enemy - Web Of Lies - текст песни, таба, бас-таба, видео

Печатать
Просмотров: 297
Уроки эстрадного вокала в Санкт-Петербурге
Авторы музыки: Michael Amott, Christopher Amott
Авторы текста: Michael Amott
Band: Arch Enemy
Song: Web of Lies
CD:   Wages of Sin
Year: 2001
Tune: C standard
Part: Solos

(Taken from the guitar pro file, I take no credit for this)


 C|--------5---7b---7b--7b---|-7---7---5-------------|-------------------------------------|
 G|----5---------------------|-------------8b---(8)--|-----8b--8---7---8---7---5-----------|
Eb|--------------------------|-----------------------|-----------------------------7---5---|
Bb|-7------------------------|-----------------------|-------------------------------------|
 F|--------------------------|-----------------------|-------------------------------------|
 C|--------------------------|-----------------------|-------------------------------------|


 C|------------------------------|---------------------------------|---------------------------------|
 G|------------------------------|-------------8---7---------------|---------------------------------|
Eb|------------------------------|---------9-----------7---9---5---|-4-------------------------------|
Bb|-7--5-------------------------|-----7---------------------------|-----5-------5---7---5---4-------|
 F|--------7---5-----------------|---------------------------------|---------7-------------------5---|
 C|----------------8---5---5-----|---------------------------------|---------------------------------|


 C|--------------------------------|-------------------------------------------------|
 G|--------------------------------|-------------------------------------------------|
Eb|--------------------------------|----------------------------------------------7--|
Bb|--------------------------------|----------------------5--7--5-----5--7--9--10----|
 F|-7--5---3-----------------------|----------3--5--7--9-----------9-----------------|
 C|------------7--(7)--3b----------|-3--5--7-----------------------------------------|


 C|---------------------------------------------12-|-14-------------15-17-19-20-19-17----------------|
 G|---------------------10-11-10----10-12-13-15----|----17-15-17-19-------------------20-19-17-------|
Eb|-9-7-----7--9--11-12----------12----------------|-------------------------------------------19-17-|
Bb|------10----------------------------------------|-------------------------------------------------|
 F|------------------------------------------------|-------------------------------------------------|
 C|------------------------------------------------|-------------------------------------------------|


 C|------------------------------------------------|-------------------------------------------------|
 G|------------------------------------------------|-------------------------------------------------|
Eb|-16---------17-16-------------------------------|-----14------16--14--17--16--14------16--14--17--|
Bb|---19-17-15-------17-15-14----------16--14--17--|-16------17----------------------17--------------|
 F|---------------------------17-15-13-------------|-------------------------------------------------|
 C|------------------------------------------------|-------------------------------------------------|


 C|------------15------17--15--19----------19--19--|-20--19--17------19--20--19--17----------|
 G|----15----------15--------------15--17----------|-------------20------------------20b-20b-|
Eb|-16-----17--------------------------------------|-----------------------------------------|
Bb|------------------------------------------------|-----------------------------------------|
 F|------------------------------------------------|-----------------------------------------|
 C|------------------------------------------------|-----------------------------------------|


 C|-----------------|-------------------|------------------|------------------|
 G|-20--------------|-------------------|------------------|------------------|
Eb|-------9----12b--|-12b---12b---12b---|-12----9----12b---|-12b---12b---12---|
Bb|-----------------|-------------------|------------------|------------------|
 F|-----------------|-------------------|------------------|------------------|
 C|-----------------|-------------------|------------------|------------------|
  |
  |(overdubbed)
 C|------------15b--|-15b---15b---15b---|------------15b---|-15b---15b--------|
 G|-----------------|-------------------|------------------|------------------|
Eb|-----------------|-------------------|------------------|------------------|
Bb|-----------------|-------------------|------------------|------------------|
 F|-----------------|-------------------|------------------|------------------|
 C|-----------------|-------------------|------------------|------------------|


 C|-8--7--5--------|----------|----------5--8--5-----|-5----------------------|
 G|----------8--5--|----------|-------5-----------8--|----8--5--8--5----------|
Eb|----------------|-7--6--6--|-6--7-----------------|----------------7--6--7-|
Bb|----------------|----------|----------------------|------------------------|
 F|----------------|----------|----------------------|------------------------|
 C|----------------|----------|----------------------|------------------------|


 C|----------------|----------------|--------------------|----------------|
 G|----------------|----------------|-------15---15--13--|-15---13---12---|
Eb|-6----9---12b---|-12b--12b--12---|-12-----------------|----------------|
Bb|----------------|----------------|--------------------|----------------|
 F|----------------|----------------|--------------------|----------------|
 C|----------------|----------------|--------------------|----------------|
  |
  |(overdubbed)
 C|----------15b---|-15b--15b-------|--------------------|----------------|
 G|----------------|----------------|--------------------|----------------|
Eb|----------------|----------------|--------------------|----------------|
Bb|----------------|----------------|--------------------|----------------|
 F|----------------|----------------|--------------------|----------------|
 C|----------------|----------------|--------------------|----------------|

                                          *drop with whammy bar
 C|-----------------------------------|------15b--15b-|-15b--15b--15b--15b--|
 G|-12---13---12--13--12--13-12-13-12-|---------------|---------------------|
Eb|-----------------------------------|-14*-----------|---------------------|
Bb|-----------------------------------|---------------|---------------------|
 F|-----------------------------------|---------------|---------------------|
 C|-----------------------------------|---------------|---------------------|

Добавлено: 24.07.2012
Другие материалы по этой песне:

Страница создана 22.02.2012
http://primanota.ru/arch-enemy/web-of-lies-chords.htm
Привет, Гость.
Предлагаем пройти революционный курс по гитаре.
Подарок от PrimaNota.Ru, забирай!