PrimaNota.ru - самый крупный в мире бесплатный архив песенных текстов, аккордов, табулатур и нот


Arch Enemy - Enemy Within - текст песни, таба, видео

Регистрация Запомнить меня
Войти через:  Facebook Google Twitter Vk Yandex Mail.ru

Arch Enemy - Enemy Within - текст песни, таба, видео

Печатать
Просмотров: 220
Авторы музыки: Michael Amott, Christopher Amott
Авторы текста: Angela Gossow
As recorded by Arch Enemy
(From the 2001 Album WAGES OF SIN)

Transcribed by Matt Martin
        

Words by Angela Gossow Music by Christopher Amott & Michael Amott

Gtr I (C F Bb Eb G C) - 'Untitled'
Gtr II (C F Bb Eb G C) - 'Untitled'
Gtr III (C F Bb Eb G C) - 'Untitled'
Gtr IV (E A D G B E) - 'Piano'
Gtr V (E A D G B E) - 'Aahs'
Gtr VI (E A D G B E) - 'Seashore'

 Piano/Synth Intro
  Freely Q=120
  C
 4/4
  Gtr IV
   E E  E E E  E E E    E E E  Q  E E  E
|----8-11---8-10---8-|-13---8-11----8-10-|
|--8------8------8---|----8-------8------|
|--------------------|-------------------|
|-10-----------------|-------------------|
|--------------------|-------------------|
|--8-----------------|-------------------|


  G#                  Bb
  E E  E E E  E E E    E E E  Q  E E  E
|---8-11---8-10---8-|-13---8-11----8-10-|
|-9------9------9---|----9-------9------|
|-------------------|-------------------|
|-6-----------------|--8----------------|
|-------------------|-------------------|
|-4-----------------|--6----------------|


  C
   E E  E E E  E E E    E E E  Q  E E  E
|----8-11---8-10---8-|-13---8-11----8-10-|
|--8------8------8---|----8-------8------|
|--------------------|-------------------|
|-10-----------------|-------------------|
|--------------------|-------------------|
|--8-----------------|-------------------|
|
| Gtr V
|  W                    W
|--------------------|-------------------|
|--------------------|-------------------|
|--------------------|-------------------|
|--------------------|-------------------|
|--------------------|-------------------|
|--------------------|-------------------|


  G#                    Bb
  E E  E E  E   E E E    E E E  Q  E E  E
|---8-11----8--10---8-|-13---8-11----8-10--|
|-9------9--------9---|----9-------9-------|
|---------------------|--------------------|
|-6-------------------|--8-----------------|
|---------------------|--------------------|
|-4-------------------|--6-----------------|
|
| <         >            <
| H        +H            W
|---------------------|--------------------|
|---------------------|--------------------|
|---------------------|--------------------|
|-6--------(6)--------|--9-----------------|
|---------------------|--------------------|
|---------------------|--------------------|


  C
   E  E  E E  E   E E E    E E E  Q     E E  E
|-----8-11----8--10---8-|-13---8-11-------8-10-|
|--8-------8--------8---|----8----------8------|
|-----------------------|----------------------|
|-10--------------------|----------------------|
|-----------------------|----------------------|
|--8--------------------|----------------------|
|
|             >            <         <
|                          ~~~~~~~~~~~~~~~~~~~~~
| +H         +H            H         H
|-----------------------|------------7---------|
|-----------------------|----------------------|
|-----------------------|----------------------|
|-(9)--------(9)--------|--6--------(6)--------|
|-----------------------|----------------------|
|-----------------------|----------------------|


  G#                      Bb
   E  E  E E  E   E E E     E   E E  Q  E E  E
|-----8-11----8--10---8-|--13-----8-11----8-10--|
|--9-------9--------9---|-------9-------9-------|
|-----------------------|-----------------------|
|--6--------------------|---8-------------------|
|-----------------------|-----------------------|
|--4--------------------|---6-------------------|
|
|                           <
|~~~~~~~~~~~~~~~~~~~~~~~~~~~~~~~
| +H          H             W
|-(7)--------(7)--------|--(7)------------------|
|------------<5>--------|-(<5>)-----------------|
|-----------------------|-----------------------|
|-(6)--------(6)--------|--(6)------------------|
|-----------------------|-----------------------|
|-----------------------|---0-------------------|


  H=H
  C
    E   E  E E  E   E E E    E  E  E   Q     E  E   E
|-------8-11----8--10---8-|-13-----8--11--------8--10-|
|---8--------8--------8---|-----8------------8--------|
|-------------------------|---------------------------|
|--10---------------------|---------------------------|
|-------------------------|---------------------------|
|---8---------------------|---------------------------|
|
|               <            <     <      <     <
|   ~~~~~~~~~~~~~~~~~~~~~~~~~~~~~~~~~~~~~~~~~~~~~~~~~~~
|  +H           H            Q     Q      Q     Q
|--(7)---------(7)--------|-(7)---(7)----(7)---(7)----|
|-(<5>)-------------------|---------------------------|
|--------------(4)--------|-10-----8------7-----5-----|
|--(6)---------(6)--------|-(6)---(6)----(6)---(6)----|
|-------------------------|---------------------------|
|--(0)---------(0)--------|-(0)---(0)----(0)---(0)----|
|
| Gtr VI
|   W                        W
|-------------------------|---------------------------|
|-------------------------|---------------------------|
|-------------------------|---------------------------|
|-------------------------|---------------------------|
|-------------------------|---------------------------|
|-------------------------|---------------------------|


  G#                      Bb
   E  E  E E E  E  E  E    E  E E  Q  E E  E
|-----8-11---8-10-----8-|-13----8-11----8-10--|
|--9-------9-------9----|-----9-------9-------|
|-----------------------|---------------------|
|--6--------------------|--8------------------|
|-----------------------|---------------------|
|--4--------------------|--6------------------|
|
|  <               <
|~~~~~~~~~~~~~~~~~~~~~~~~~~~~~
|  H.              Q      +W
|-(7)-------------(7)---|-(7)-----------------|
|-----------------------|---------------------|
|--4---------------5----|-(5)-----------------|
|-(6)-------------(6)---|-(6)-----------------|
|-----------------------|---------------------|
|-(0)-------------(0)---|-(0)-----------------|
|
|                          <
|  W                       W
|-----------------------|---------------------|
|-----------------------|---------------------|
|-----------------------|--5------------------|
|-----------------------|---------------------|
|-----------------------|---------------------|
|-----------------------|---------------------|


 Intro
  Q=146
  E5
 4/4
  Gtrs I, II
  PM-----------------------------------------------------
  S S E E S S E E S S S S   +S  S S S S E S S S S S E E
|-------------------------|-----------------------------|
|-------------------------|-----------------------------|
|-------------------------|-----------------------------|
|-------------------------|-----------------------------|
|-2-2-2---2-2-2---2-2-2-2-|-(2)---2-2-2-2---2-2-2-2-2---|
|-0-0-0---0-0-0---0-0-0-0-|-(0)---0-0-0-0---0-0-0-0-0---|


 ---------------------------------------------------|
  S S E E S S E E S S S S   +S  S S S S E S S S S S E E
|-------------------------|--------------------------------|
|-------------------------|--------------------------------|
|-------------------------|--------------------------------|
|-------------------------|--------------------------------|
|-2-2-2---2-2-2---2-2-2-2-|-(2)---2-2-2-2---2-2-2-2-2------|
|-0-0-0---0-0-0---0-0-0-0-|-(0)---0-0-0-0---0-0-0-0-0------|


  E5
  PM-----------------------------------------------------
  S S E E S S E E S S S S   +S  S S S S E S S S S S E E
|-------------------------|-----------------------------|
|-------------------------|-----------------------------|
|-------------------------|-----------------------------|
|-------------------------|-----------------------------|
|-2-2-2---2-2-2---2-2-2-2-|-(2)---2-2-2-2---2-2-2-2-2---|
|-0-0-0---0-0-0---0-0-0-0-|-(0)---0-0-0-0---0-0-0-0-0---|


                                                    N.C.
 -------------------------------------------------|
  S S E E S S E E S S S S   +S  S S S S E S S S S S  Q
|-------------------------|-------------------------------|
|-------------------------|-------------------------------|
|-------------------------|-------------------------------|
|-------------------------|-------------------------------|
|-2-2-2---2-2-2---2-2-2-2-|-(2)---2-2-2-2---2-2-2-2-12\---|
|-0-0-0---0-0-0---0-0-0-0-|-(0)---0-0-0-0---0-0-0-0-12\---|


    (E5)                                     (C5)        (D5)
    Gtr I
    PM------------------------------------------------------------|
    S S E   E   S S  E   E   S S S S   +S  S S S S E   S  S S S S S E.       4x
||-----------------------------------|---------------------------------------||
||o----------------------------------|--------------------------------------o||
||-----------------------------------|---------------------------------------||
||-----------------------------------|---------------------------------------||
||o----------------------------------|-------3-3-3-3------5-5-5-5-5---------o||
||--0-0-0-------0-0--0-------0-0-0-0-|-(0)-----------------------------------||
|
|   Gtr II
|   PM-------------------------------------------------------------------|
|   S S S S S S S S  S S S S S S S S    S  S S S S S S S  S S S S S S  S S   4x
||-----------------------------------|---------------------------------------||
||o-0-0-8-0-0-7-0-0-10-0-0-8-0-0-7-8-|--0--0-8-0-0-7-0-0-10-0-0-8-0-0--7-8--o||
||-----------------------------------|---------------------------------------||
||-----------------------------------|---------------------------------------||
||o----------------------------------|--------------------------------------o||
||-----------------------------------|---------------------------------------||


    (E5)                               (C5)            (D5)
    PM----------------------------------------------------------------|
    S S S S S S S S  S S S S S S S S   S S S S S S S S  S S S S S S S S
||-----------------------------------|------------------------------------||
||o----------------------------------|-----------------------------------o||
||-----------------------------------|------------------------------------||
||-----------------------------------|------------------------------------||
||o----------------------------------|-3-3-3-3-3-3-3-3--5-5-5-5-5-5-5-5--o||
||--0-0-0-0-0-0-0-0--0-0-0-0-0-0-0-0-|------------------------------------||
|
|   S S S S S S S S  S S S S S S S S   S S S S S S S S  S S S S S S S S
||-----------------------------------|------------------------------------||
||o-0-0-8-0-0-7-0-0-10-0-0-8-0-0-7-8-|-0-0-8-0-0-7-0-0-10-0-0-8-0-0-7-8--o||
||-----------------------------------|------------------------------------||
||-----------------------------------|------------------------------------||
||o----------------------------------|-----------------------------------o||
||-----------------------------------|------------------------------------||


  (G5)              (F#5)
  Gtr I
  PM-------------------------------------
  S S  S S S  S S S  S S S  S S S  S  S
|---------------------------------------|
|---------------------------------------|
|---------------------------------------|
|---------------------------------------|
|---------------------------------------|
|-3-3--3-3-3--3-3-3--2-2-2--2-2-2--2--2-|
|
| Gtr II
| S S  S S S  S S S  S S S  S S S  S  S
|---------------------------------------|
|-0-0--8-0-0--7-0-0-10-0-0--8-0-0--7--8-|
|---------------------------------------|
|---------------------------------------|
|---------------------------------------|
|---------------------------------------|
|
| Gtr III
| S S  S S S  S S S  S S S  S S S  S  S
|---------------------------------------|
|-0-0-12-0-0-10-0-0-13-0-0-12-0-0-10-12-|
|---------------------------------------|
|---------------------------------------|
|---------------------------------------|
|---------------------------------------|


  (E5)              (D5)
 ------------------------------------|
  S S  S S S  S S S  S S S  S S S  S  S
|---------------------------------------|
|---------------------------------------|
|---------------------------------------|
|---------------------------------------|
|--------------------5-5-5--5-5-5--5--5-|
|-0-0--0-0-0--0-0-0---------------------|
|
| S S  S S S  S S S  S S S  S S S  S  S
|---------------------------------------|
|-0-0--8-0-0--7-0-0-10-0-0--8-0-0--7--8-|
|---------------------------------------|
|---------------------------------------|
|---------------------------------------|
|---------------------------------------|
|
| S S  S S S  S S S  S S S  S S S  S  S
|---------------------------------------|
|-0-0-12-0-0-10-0-0-13-0-0-12-0-0-10-12-|
|---------------------------------------|
|---------------------------------------|
|---------------------------------------|
|---------------------------------------|


  C5               E5         G
   W                H          H
|----------------|------------------||
|----------------|------------------||
|----------------|------------------||
|--5-------------|------------------||
|--3-------------|--2----------2----||
|----------------|--0----------3----||
|
|  ~~~
|  H.       E  E    Q.   S  S  H
|----------------|------------------||
|--8-------10--8-|--8----8-10--7----||
|----------------|------------------||
|----------------|------------------||
|----------------|------------------||
|----------------|------------------||
|
|  ~~~
|  H.       E  E    H          H
|----------------|------------12----||
|-12-------13-12-|-12---------------||
|----------------|------------------||
|----------------|------------------||
|----------------|------------------||
|----------------|------------------||


   Verse
    $
    N.C.
    Gtrs I, II
    E E S E S  E S E S E   E E S E S E S E S E
||-----------------------|---------------------|
||o----------------------|---------------------|
||-----------------------|---------------------|
||-----------------------|---------------------|
||o---7---8---10---8---7-|---5---3---2---------|
||--0---0---0----0---0---|-0---0---0---0-5-0-4-|


  E E S E S  E S E S E   E E S E S S S S S S S S S
|----------------------|---------------------------|
|----------------------|---------------------------|
|----------------------|---------------------------|
|----------------------|---------------------------|
|---7---8---10---8---7-|---5---3-------------------|
|-0---0---0----0---0---|-0---0---0-4-3-1-0-4-3-1-0-|


  N.C.
  Gtr I
  E E S E S  E S E S E   E E S E S E S E S E
|----------------------|---------------------|
|----------------------|---------------------|
|----------------------|---------------------|
|----------------------|---------------------|
|---7---8---10---8---7-|---5---3---2---------|
|-0---0---0----0---0---|-0---0---0---0-5-0-4-|
|
| Gtr II
| E E S E S  E S E S E   E E S E S E S E S E
|----------------------|---------------------|
|----------------------|---------------------|
|----------------------|---------------------|
|----------------------|---------------------|
|---7---8---10---8---7-|---5---3---2---------|
|-0---0---0----0---0---|-0---0---0---0-5-0-4-|


                                  ~~
  E E S E S  E S E S E     E. E.  Q   E E  E
|----------------------|-----------------------||
|----------------------|-/10--9---------------o||
|----------------------|---------10---9-7------||
|----------------------|------------------10---||
|---7---8---10---8---7-|----------------------o||
|-0---0---0----0---0---|-----------------------||
|
|                                 ~~
| E E S E S  E S E S E     E. E.  Q   E E  E
|----------------------|-----------------------||
|----------------------|----------------------o||
|----------------------|-/10--9---7------------||
|----------------------|-------------10-9--7---||
|---7---8---10---8---7-|----------------------o||
|-0---0---0----0---0---|-----------------------||


 Chorus
  C/E                       E5
  Gtrs I, II
    PM|   PM|   PM|   PM|     PM|   PM|   PM|   PM|
  E S S E S S E S S E S S   E S S E S S E S S E S S
|-------------------------|-------------------------|
|-------------------------|-------------------------|
|-5-----5-----5-----5-----|-4-----4-----4-----4-----|
|-2-----2-----2-----2-----|-2-----2-----2-----2-----|
|---0-0---0-0---0-0---0-0-|---0-0---0-0---0-0---0-0-|
|-------------------------|-------------------------|


  C/E                       D5     E5    C/E
    PM|   PM|   PM|   PM|
  E S S E S S E S S E S S   E E Q  E E E E
|-------------------------|----------------|
|-------------------------|----------------|
|-5-----5-----5-----5-----|--------------5-|
|-2-----2-----2-----2-----|-7-7----9-9---2-|
|---3-3---3-3---3-3---3-3-|-5-5----7-7-----|
|-------------------------|----------------|


  C/E                         E5
      PM|   PM|   PM|   PM|     PM|   PM|   PM|   PM|
  +E  S S E S S E S S E S S   E S S E S S E S S E S S
|---------------------------|-------------------------|
|---------------------------|-------------------------|
|-(5)-----5-----5-----5-----|-4-----4-----4-----4-----|
|-(2)-----2-----2-----2-----|-2-----2-----2-----2-----|
|-----0-0---0-0---0-0---0-0-|---0-0---0-0---0-0---0-0-|
|---------------------------|-------------------------|


                                     D.S.
  C/E                       D5     E5
    PM|   PM|   PM|   PM|
  E S S E S S E S S E S S   E E Q  E E Q
|-------------------------|---------------||
|-------------------------|---------------||
|-5-----5-----5-----5-----|---------------||
|-2-----2-----2-----2-----|-7-7----9-9----||
|---3-3---3-3---3-3---3-3-|-5-5----7-7----||
|-------------------------|---------------||


   Intro (revisited)
    (E5)                               (C5)            (D5)
    Gtr I
    PM----------------------------------------------------------------|
    S S S S S S S S  S S S S S S S S   S S S S S S S S  S S S S S S S S
||-----------------------------------|------------------------------------||
||o----------------------------------|-----------------------------------o||
||-----------------------------------|------------------------------------||
||-----------------------------------|------------------------------------||
||o----------------------------------|-3-3-3-3-3-3-3-3--5-5-5-5-5-5-5-5--o||
||--0-0-0-0-0-0-0-0--0-0-0-0-0-0-0-0-|------------------------------------||
|
|   Gtr II
|   S S S S S S S S  S S S S S S S S   S S S S S S S S  S S S S S S S S
||-----------------------------------|------------------------------------||
||o-0-0-8-0-0-7-0-0-10-0-0-8-0-0-7-8-|-0-0-8-0-0-7-0-0-10-0-0-8-0-0-7-8--o||
||-----------------------------------|------------------------------------||
||-----------------------------------|------------------------------------||
||o----------------------------------|-----------------------------------o||
||-----------------------------------|------------------------------------||


  (G5)              (F#5)
  Gtr I
  PM-------------------------------------
  S S  S S S  S S S  S S S  S S S  S  S
|---------------------------------------|
|---------------------------------------|
|---------------------------------------|
|---------------------------------------|
|---------------------------------------|
|-3-3--3-3-3--3-3-3--2-2-2--2-2-2--2--2-|
|
| Gtr II
| S S  S S S  S S S  S S S  S S S  S  S
|---------------------------------------|
|-0-0--8-0-0--7-0-0-10-0-0--8-0-0--7--8-|
|---------------------------------------|
|---------------------------------------|
|---------------------------------------|
|---------------------------------------|
|
| Gtr III
| S S  S S S  S S S  S S S  S S S  S  S
|---------------------------------------|
|-0-0-12-0-0-10-0-0-13-0-0-12-0-0-10-12-|
|---------------------------------------|
|---------------------------------------|
|---------------------------------------|
|---------------------------------------|


  (E5)              (D5)
 ------------------------------------|
  S S  S S S  S S S  S S S  S S S  S  S
|---------------------------------------||
|---------------------------------------||
|---------------------------------------||
|---------------------------------------||
|--------------------5-5-5--5-5-5--5--5-||
|-0-0--0-0-0--0-0-0---------------------||
|
| S S  S S S  S S S  S S S  S S S  S  S
|---------------------------------------||
|-0-0--8-0-0--7-0-0-10-0-0--8-0-0--7--8-||
|---------------------------------------||
|---------------------------------------||
|---------------------------------------||
|---------------------------------------||
|
| S S  S S S  S S S  S S S  S S S  S  S
|---------------------------------------||
|-0-0-12-0-0-10-0-0-13-0-0-12-0-0-10-12-||
|---------------------------------------||
|---------------------------------------||
|---------------------------------------||
|---------------------------------------||


 Guitar Solos
  C5         Eb5                       B5                    E5
  W           H                         H                    W
|----------|-----------------------------------------------|------|
|----------|-----------------------------------------------|------|
|----------|-----------------------------------------------|------|
|-5--------|--8-------------------------4------------------|------|
|-3--------|--6-------------------------2------------------|-2----|
|----------|-----------------------------------------------|-0----|
|
| ~
|             |--3--|
| W           S  S  S  S  S  S S  S  S  S  S S  S  S S S S   W
|-7--------|-11h12p11p=8-----------------------------------|------|
|----------|-------------12-10-8---------------------------|------|
|----------|---------------------11--9---------------------|------|
|----------|---------------------------10--9-7-------------|------|
|----------|-----------------------------------10--9-7-6-7-|------|
|----------|-----------------------------------------------|-0----|
|
| ~
|             |--3--|
| W           S  S  S  S  S  S S  S  S  S  S S  S  S S S S   W
|----------|-----------------------------------------------|------|
|-8--------|-12h13p12p10-----------------------------------|------|
|----------|-------------12-11-9---------------------------|------|
|----------|---------------------12-10---------------------|------|
|----------|---------------------------12-10-9-------------|------|
|----------|-----------------------------------12-10-8-7-8-|-0----|


  N.C.
  Gtr I
  +H.      E S S   +E     S  S    S  S  S    S  S  S    S  S  E     S  S
|----------------|-------------------------------------------------------|
|----------------|-------------------------------------------------------|
|----------------|-------------------------------------------------------|
|----------------|-------------------------------------------------------|
|-(2)------5-8-7-|-(7)----------------------------------------5-----8--7-|
|-(0)------------|--------0--0----0--0--0----0--0--0----0--0-------------|
|
| Gtr II
| +H.      Q        E     S  E       S  E       S  E       S  E     S  S
|----------------|-------12---------12---------12---------12-------12----|
|----------------|-15b17---------------15b17-----------------15b17----12-|
|----------------|----------14b16-----------------14b16------------------|
|----------------|-------------------------------------------------------|
|----------------|-------------------------------------------------------|
|-(0)------------|-------------------------------------------------------|


   +E      S S  S S  S S  S S   S  S  E  S S
|---------------------------------------------|
|---------------------------------------------|
|---------------------------------------------|
|---------------------------------------------|
|--(7)--------------------------------5--8-7--|
|----------0-0--0-0--0-0--0-0---0--0----------|
|
|                         ~~~~~~~~~
|  +S   S  E    E    E    E    +E     Q
|------12-------------------------------------|
|-(12)----------------------------------------|
|---------14---13---14---13---(13)------------|
|---------------------------------------------|
|------------------------------------11\------|
|---------------------------------------------|


  N.C.
  +E      S  S  E     S  E.        S  S  E     S  S
|---------------------------------------------------|
|---------------------------------------------------|
|---------------------------------------------------|
|---------------------------------------------------|
|-(7)-----------5-----8--7---------------5-----8--7-|
|---------0--0---------------------0--0-------------|
|
|  S   S  S  S  S  S  S  S   S  S  S  S  S  S  S  S
|---------------------------------------------------|
|---------------------------------------------------|
|---------------------------------------------------|
|-14--12----------12-14-12-----------12-15-12-14-12-|
|--------14-12-14-----------14-12-14----------------|
|---------------------------------------------------|


  +E      S  S  S  S  S  S     S  S  S  S  E  S S
|-------------------------------------------------|
|-------------------------------------------------|
|-------------------------------------------------|
|-------------------------------------------------|
|-(7)--------------------------------------5--8-7-|
|---------0--0--0--0--0--0-----0--0--0--0---------|
|
|  S   S  S  S  S  S  S  T  T  S  S  S  S  Q
|-------------------------------------------------|
|-------------------------------------------------|
|-------------------------------------------------|
|-----12------------------------------------------|
|-14-----14-12-14-12-11-12p11-------------11\-----|
|-----------------------------13-12-13-12---------|


  N.C.
  +E        S  S  S  S  S  S  S  S  S  S  E     S  S
|----------------------------------------------------|
|----------------------------------------------------|
|----------------------------------------------------|
|----------------------------------------------------|
|-(7)-------------------------------------5-----8--7-|
|-----------0--0--0--0--0--0--0--0--0--0-------------|
|
|  PM---------------------------|
|  T  T  S  S  S  S  S  S  S  S  S  S  S  S  S  S  S
|----------------------------------------------------|
|----------------------------------------------------|
|----------------------------------13-14-------13-14-|
|----------------12-14----12-14-15-------12-14-------|
|-------11-12-15-------14----------------------------|
|-12h13----------------------------------------------|


  +E      S  S  S  S  S  S  S     S S S   E    S S
|--------------------------------------------------|
|--------------------------------------------------|
|--------------------------------------------------|
|--------------------------------------------------|
|-(7)-------------------------------------5----8-7-|
|---------0--0--0--0--0--0--0-----0-0-0------------|
|
|                           ~~~~~~
|  S   S  S  S  S  S  S  S  Q            +Q
|-----------------11-12-17-17b19========(17)r\-----|
|-12--15-------12----------------------------------|
|--------13-14-------------------------------------|
|--------------------------------------------------|
|--------------------------------------------------|
|--------------------------------------------------|


  N.C.
   +E         S  S     S    S     S    S     S  S     S    S     E        S S
|-----------------------------------------------------------------------------|
|-----------------------------------------------------------------------------|
|-----------------------------------------------------------------------------|
|-----------------------------------------------------------------------------|
|--(7)-----------------------------------------------------------5--------8-7-|
|-------------0--0-----0----0-----0----0-----0--0-----0----0------------------|
|
|                      |---3---|  |---3---|           |---3---|  |--3--|
|   S   T  T  S  T  T  S  S    S  S  S    S  S  T  T  S  S    S  S  S  S  E
|-/20--19h20-19-17p16-19p16h==17-19p17p==16-13-12h13-16h17p==16----16---------|
|---------------------------------------------------------------18----18-17---|
|-----------------------------------------------------------------------------|
|-----------------------------------------------------------------------------|
|-----------------------------------------------------------------------------|
|-----------------------------------------------------------------------------|


  N.C.
  +E         S    S     E        S    E.             S S E S S
|--------------------------------------------------------------|
|--------------------------------------------------------------|
|--------------------------------------------------------------|
|--------------------------------------------------------------|
|-(7)-------------------5--------8----7------------------5-8-7-|
|------------0----0----------------------------------0-0-------|
|
|                                               ~~~~~
|  |--------6--------|  |--------6--------|
|  S   S  S  S  S    S  S  S  S  S  S     S  a  H
|-13--12---------------12--------------------------------------|
|--------15-13-12---------15-13-12----------10s12b13-----------|
|-------------------14-------------14----13--------------------|
|--------------------------------------------------------------|
|--------------------------------------------------------------|
|--------------------------------------------------------------|


  A5
   W
|----------------------------------------------------------------------|
|----------------------------------------------------------------------|
|----------------------------------------------------------------------|
|--2-------------------------------------------------------------------|
|--0-------------------------------------------------------------------|
|----------------------------------------------------------------------|
|
|        |--3--|  |--3--|  |--3--|  |--3--|  |--3--|  |--3--|  |--3--|
|  S  S  S  S  S  S  S  S  S  S  S  S  S  S  S  S  S  S  S  S  S  S  S
|----------12h15p12----12h15p12----12h15p12----12h15p12----12h15p12----|
|-12-13-15----------15----------15----------15----------15----------15-|
|----------------------------------------------------------------------|
|----------------------------------------------------------------------|
|----------------------------------------------------------------------|
|----------------------------------------------------------------------|


  F5                                  G5
   H                                   H
|-------------------------------------------------------------------------|
|-------------------------------------------------------------------------|
|-------------------------------------------------------------------------|
|-------------------------------------------------------------------------|
|--3-----------------------------------5----------------------------------|
|--1-----------------------------------3----------------------------------|
|
|  |--3--|  |--3--|  |--3--|  |--3--|  |--3--|  |--3--|  |--3--|  |--3--|
|  S  S  S  S  S  S  S  S  S  S  S  S  S  S  S  S  S  S  S  S  S  S  S  S
|-15p12----12h15p12----12h15p12----12h15p12----12h15p12----12h15p12----12-|
|-------15----------15----------15----------15----------15----------15----|
|-------------------------------------------------------------------------|
|-------------------------------------------------------------------------|
|-------------------------------------------------------------------------|
|-------------------------------------------------------------------------|


  A5                   B5
   H.                E  E
|-------------------------|
|-------------------------|
|-------------------------|
|--2-----------------2--4-|
|--0-----------------0--2-|
|-------------------------|
|
|  ~~~~~
|  H        E.    E.    E
|-15b17----15b17-19----20-|
|-------------------------|
|-------------------------|
|-------------------------|
|-------------------------|
|-------------------------|


  N.C.                      (A5)
          ~            ~
   E    E Q        E E Q    S    S S S S S S S S    S S  S    S S  S    S
|-------------------------|-----------------------------------------------|
|-------------------------|-----------------------------------------------|
|-------------------------|-----------------------------------------------|
|-------2-5----------4-5--|-----------------------------------------------|
|--3---------------5------|-0----0-0-0-0-0-0-0-0----0-0--0----0-0--0----0-|
|-------------------------|-----------------------------------------------|
|
|  ~~~~~           ~~~~~~~~~~~~~~
|  Q.        S  S  H        H                  E.        E.        E
|-20b22-----20-19-20------|-5------------------5---------7---------8------|
|-------------------------|-8b10---------------8b10-----10b12-----11b13---|
|-------------------------|-----------------------------------------------|
|-------------------------|-----------------------------------------------|
|-------------------------|-----------------------------------------------|
|-------------------------|-----------------------------------------------|


  (F5)                (G5)
   S    S S S S S S S  S    S S S S S S S
|------------------------------------------|
|------------------------------------------|
|------------------------------------------|
|------------------------------------------|
|------------------------------------------|
|--1----1-1-1-1-1-1-1--3----3-3-3-3-3-3-3--|
|
|  H                   H
|--7-------------------8-------------------|
|-10b12---------------11b13----------------|
|------------------------------------------|
|------------------------------------------|
|------------------------------------------|
|------------------------------------------|


  (A5)                           N.C.
                                            ~         ~
   S    S S S S S S S S S S S  E  E    E  E Q     E E Q
|-----------------------------------|--------------------||
|-----------------------------------|--------------------||
|-----------------------------------|--------------------||
|-----------------------------------|-----2-5-------4-5--||
|--0----0-0-0-0-0-0-0-0-0-0-0--0--2-|--3----------5------||
|-----------------------------------|--------------------||
|
|  ~~~~~                               ~~~~~~~~~~~~~
|  H.                          E  E    Q.      E  H
|-10b12-----------------------------|---------17-15------||
|-----------------------------15-13-|-12-----------------||
|-----------------------------------|--------------------||
|-----------------------------------|--------------------||
|-----------------------------------|--------------------||
|-----------------------------------|--------------------||


 Chorus
  C/E                            E5
     PM|       PM|   PM|   PM|     PM|   PM|   PM|   PM|
   E S S   E   S S E S S E S S   E S S E S S E S S E S S
|------------------------------|-------------------------|
|------------------------------|-------------------------|
|--5-------5-------5-----5-----|-4-----4-----4-----4-----|
|--2-------2-------2-----2-----|-2-----2-----2-----2-----|
|----0-0-------0-0---0-0---0-0-|---0-0---0-0---0-0---0-0-|
|------------------------------|-------------------------|
|
|  ~~
|  Q      +Q       H             W
|-17-----(17)\-----------------|-------------------------|
|------------------------------|-------------------------|
|------------------------------|-------------------------|
|------------------------------|-------------------------|
|------------------------------|-------------------------|
|------------------------------|-------------------------|


  C/E                       D5     E5    C/E
    PM|   PM|   PM|   PM|
  E S S E S S E S S E S S   E E Q  E E E E
|-------------------------|----------------|
|-------------------------|----------------|
|-5-----5-----5-----5-----|--------------5-|
|-2-----2-----2-----2-----|-7-7----9-9---2-|
|---3-3---3-3---3-3---3-3-|-5-5----7-7-----|
|-------------------------|----------------|
|
| W                         W
|-------------------------|----------------|
|-------------------------|----------------|
|-------------------------|----------------|
|-------------------------|----------------|
|-------------------------|----------------|
|-------------------------|----------------|


  C/E                         E5
  Gtr I
      PM|   PM|   PM|   PM|     PM|   PM|   PM|   PM|
  +E  S S E S S E S S E S S   E S S E S S E S S E S S
|---------------------------|-------------------------|
|---------------------------|-------------------------|
|-(5)-----5-----5-----5-----|-4-----4-----4-----4-----|
|-(2)-----2-----2-----2-----|-2-----2-----2-----2-----|
|-----0-0---0-0---0-0---0-0-|---0-0---0-0---0-0---0-0-|
|---------------------------|-------------------------|
|
| Gtr II
|     PM|   PM|   PM|   PM|     PM|   PM|   PM|   PM|
|  E  S S E S S E S S E S S   E S S E S S E S S E S S
|---------------------------|-------------------------|
|---------------------------|-------------------------|
|-(5)-----5-----5-----5-----|-4-----4-----4-----4-----|
|-(2)-----2-----2-----2-----|-2-----2-----2-----2-----|
|-----0-0---0-0---0-0---0-0-|---0-0---0-0---0-0---0-0-|
|---------------------------|-------------------------|


  C/E                       D5     E5    C/E
    PM|   PM|   PM|   PM|
  E S S E S S E S S E S S   E E Q  E E E E
|-------------------------|----------------|
|-------------------------|----------------|
|-5-----5-----5-----5-----|--------------5-|
|-2-----2-----2-----2-----|-7-7----9-9---2-|
|---3-3---3-3---3-3---3-3-|-5-5----7-7-----|
|-------------------------|----------------|
|
|   PM|   PM|   PM|   PM|
| E S S E S S E S S E S S   E E Q  E E E E
|-------------------------|----------------|
|-------------------------|----------------|
|-5-----5-----5-----5-----|--------------5-|
|-2-----2-----2-----2-----|-7-7----9-9-----|
|---3-3---3-3---3-3---3-3-|-5-5----7-7---3-|
|-------------------------|----------------|


  C/E                         E5
      PM|   PM|   PM|   PM|       PM|   PM|   PM|   PM|
  +E  S S E S S E S S E S S    E  S S E S S E S S E S S
|---------------------------|---------------------------|
|---------------------------|---------------------------|
|-(5)-----5-----5-----5-----|--4------4-----4-----4-----|
|-(2)-----2-----2-----2-----|--2------2-----2-----2-----|
|-----0-0---0-0---0-0---0-0-|-----0-0---0-0---0-0---0-0-|
|---------------------------|---------------------------|
|
| +H            E E   E E     +W
|---------------------------|---------------------------|
|---------------------------|---------------------------|
|-(5)-----------5s7---5-4---|-(4)-----------------------|
|---------------------------|---------------------------|
|-(3)-----------3s5---3-2---|-(2)-----------------------|
|---------------------------|---------------------------|


  C/E                       D5        E5     C/E
    PM|   PM|   PM|   PM|
  E S S E S S E S S E S S     E E Q   E  E E E
|-------------------------|--------------------|
|-------------------------|--------------------|
|-5-----5-----5-----5-----|------------------5-|
|-2-----2-----2-----2-----|---7-7-----9--9---2-|
|---3-3---3-3---3-3---3-3-|---5-5-----7--7-----|
|-------------------------|--------------------|
|
| W                           E q   E Q.     E
|-------------------------|--------------------|
|-------------------------|--------------------|
|-5-----------------------|-/10-9---7-9------5-|
|-------------------------|--------------------|
|-3-----------------------|--/8-7---5-7------3-|
|-------------------------|--------------------|


  C/E                         E5
      PM|   PM|   PM|   PM|       PM|   PM|   PM|   PM|
  +E  S S E S S E S S E S S    E  S S E S S E S S E S S
|---------------------------|---------------------------|
|---------------------------|---------------------------|
|-(5)-----5-----5-----5-----|--4------4-----4-----4-----|
|-(2)-----2-----2-----2-----|--2------2-----2-----2-----|
|-----0-0---0-0---0-0---0-0-|-----0-0---0-0---0-0---0-0-|
|---------------------------|---------------------------|
|
| +H            E E   E E     +W
|---------------------------|---------------------------|
|---------------------------|---------------------------|
|-(5)-----------5s7---5-4---|-(4)-----------------------|
|---------------------------|---------------------------|
|-(3)-----------3s5---3-2---|-(2)-----------------------|
|---------------------------|---------------------------|


  C/E                       D5         E5
    PM|   PM|   PM|   PM|
  E S S E S S E S S E S S     E  E Q    E  E Q
|-------------------------|----------------------||
|-------------------------|----------------------||
|-5-----5-----5-----5-----|----------------------||
|-2-----2-----2-----2-----|---7--7------9--9-----||
|---3-3---3-3---3-3---3-3-|---5--5------7--7-----||
|-------------------------|----------------------||
|
| W                           E  q   E  Q.     E
|-------------------------|----------------------||
|-------------------------|----------------------||
|-5-----------------------|-/12-11---9-11--------||
|-------------------------|----------------------||
|-3-----------------------|-/10--9---7--9--------||
|-------------------------|----------------------||


   Outro
    (E5)                               (C5)            (D5)
    Gtr I
    PM----------------------------------------------------------------|
    S S S S S S S S  S S S S S S S S   S S S S S S S S  S S S S S S S S
||-----------------------------------|------------------------------------||
||o----------------------------------|-----------------------------------o||
||-----------------------------------|------------------------------------||
||-----------------------------------|------------------------------------||
||o----------------------------------|-3-3-3-3-3-3-3-3--5-5-5-5-5-5-5-5--o||
||--0-0-0-0-0-0-0-0--0-0-0-0-0-0-0-0-|------------------------------------||
|
|   Gtr II
|   S S S S S S S S  S S S S S S S S   S S S S S S S S  S S S S S S S S
||-----------------------------------|------------------------------------||
||o-0-0-8-0-0-7-0-0-10-0-0-8-0-0-7-8-|-0-0-8-0-0-7-0-0-10-0-0-8-0-0-7-8--o||
||-----------------------------------|------------------------------------||
||-----------------------------------|------------------------------------||
||o----------------------------------|-----------------------------------o||
||-----------------------------------|------------------------------------||


  (G5)              (F#5)
  Gtr I
  PM-------------------------------------
  S S  S S S  S S S  S S S  S S S  S  S
|---------------------------------------|
|---------------------------------------|
|---------------------------------------|
|---------------------------------------|
|---------------------------------------|
|-3-3--3-3-3--3-3-3--2-2-2--2-2-2--2--2-|
|
| Gtr II
| S S  S S S  S S S  S S S  S S S  S  S
|---------------------------------------|
|-0-0--8-0-0--7-0-0-10-0-0--8-0-0--7--8-|
|---------------------------------------|
|---------------------------------------|
|---------------------------------------|
|---------------------------------------|
|
| Gtr III
| S S  S S S  S S S  S S S  S S S  S  S
|---------------------------------------|
|-0-0-12-0-0-10-0-0-13-0-0-12-0-0-10-12-|
|---------------------------------------|
|---------------------------------------|
|---------------------------------------|
|---------------------------------------|


  (E5)              (D5)
 ------------------------------------|
  S S  S S S  S S S  S S S  S S S  S  S
|---------------------------------------|
|---------------------------------------|
|---------------------------------------|
|---------------------------------------|
|--------------------5-5-5--5-5-5--5--5-|
|-0-0--0-0-0--0-0-0---------------------|
|
| S S  S S S  S S S  S S S  S S S  S  S
|---------------------------------------|
|-0-0--8-0-0--7-0-0-10-0-0--8-0-0--7--8-|
|---------------------------------------|
|---------------------------------------|
|---------------------------------------|
|---------------------------------------|
|
| S S  S S S  S S S  S S S  S S S  S  S
|---------------------------------------|
|-0-0-12-0-0-10-0-0-13-0-0-12-0-0-10-12-|
|---------------------------------------|
|---------------------------------------|
|---------------------------------------|
|---------------------------------------|


  C5               E5         G       E5
                                       PM-----------------------------
   W                H          H       S    S E E S S E E   S  S S S
|----------------|------------------|--------------------------------|
|----------------|------------------|--------------------------------|
|----------------|------------------|--------------------------------|
|--5-------------|------------------|--------------------------------|
|--3-------------|--2----------3----|--2----2-2---2-2-2-----2--2-2-2-|
|----------------|--0----------2----|--0----0-0---0-0-0-----0--0-0-0-|
|
|  H.       E  E    Q.   S  S  H       H.                  +Q
|----------------|------------------|-22b24r==============(22)-------|
|--8-------10--8-|--8----8-10--7----|--------------------------------|
|----------------|------------------|--------------------------------|
|----------------|------------------|--------------------------------|
|----------------|------------------|--------------------------------|
|----------------|------------------|--------------------------------|
|
|  H.       E  E    H          H       H.                  +Q
|----------------|------------12----|-10b12r==============(10)-------|
|-12-------13-12-|-12---------------|--------------------------------|
|----------------|------------------|--------------------------------|
|----------------|------------------|--------------------------------|
|----------------|------------------|--------------------------------|
|----------------|------------------|--------------------------------|


 -----------------------------------|
   +S     S S S S E S S S S S   E   E
|---------------------------------------|
|---------------------------------------|
|---------------------------------------|
|---------------------------------------|
|--(2)------2-2-2-2---2-2-2-2---2-------|
|--(0)------0-0-0-0---0-0-0-0---0-------|
|
|  +H.                         +Q
|-(22)b25r====================(22)\-----|
|---------------------------------------|
|---------------------------------------|
|---------------------------------------|
|---------------------------------------|
|---------------------------------------|
|
|  +H.                         +Q
|-(10)b12r====================(10)\-----|
|---------------------------------------|
|---------------------------------------|
|---------------------------------------|
|---------------------------------------|
|---------------------------------------|


  E5                                        N.C.        E5
  PM------------------------------------|
  S S E E S S E E S S S S   +S  S S S S S E T T S T T S E E
|-------------------------|----------------------------------*|
|-------------------------|----------------------------------*|
|-------------------------|----------------------------------*|
|-------------------------|----------------------------------*|
|-2-2-2---2-2-2---2-2-2-2-|-(2)---2-2-2-2---------2h3h5-2----*|
|-0-0-0---0-0-0---0-0-0-0-|-(0)---0-0-0-0---3h5h7-------0----*|



Duration Legend
---------------
W - whole; H - half; Q - quarter; E - 8th; S - 16th; T - 32nd; X - 64th; a - acciaccatura
+ - note tied to previous; . - note dotted; .. - note double dotted
Uncapitalized letters represent notes that are staccato (1/2 duration)
Irregular groupings are notated above the duration line
Duration letters will always appear directly above the note/fret number it represents the
duration for.  Duration letters with no fret number below them represent rests.  Multi-
bar rests are notated in the form Wxn, where n is the number of bars to rest for.  Low
melody durations appear below the staff

Tablature Legend
----------------
 h   - hammer-on
 p   - pull-off
 b   - bend
 pb  - pre-bend
 r   - bend release (if no number after the r, then release immediately)
 /\  - slide into or out of (from/to "nowhere")
 s   - legato slide
 S   - shift slide
 - natural harmonic
[n]  - artificial harmonic
n(n) - tapped harmonic
 ~   - vibrato
 tr  - trill
 T   - tap
 TP  - trem. picking
 PM  - palm muting
\n/  - tremolo bar dip; n = amount to dip
 \n  - tremolo bar down
 n/  - tremolo bar up
/n\  - tremolo bar inverted dip
 =   - hold bend; also acts as connecting device for hammers/pulls
 <> - volume swell (louder/softer)
 x   - on rhythm slash represents muted slash
 o   - on rhythm slash represents single note slash

Misc Legend
-----------
 |  - bar
||  - double bar
||o - repeat start
o|| - repeat end
*|  - double bar (ending)
 :  - bar (freetime)
 $  - Segno
 &  - Coda
Tempo markers -  = BPM(8/16=s8/s16), where s8 = swing 8ths, s16 = swing 16ths

Добавлено: 09.05.2012
Другие материалы по этой песне:

Страница создана 09.03.2012
http://primanota.ru/arch-enemy/enemy-within-chords.htm
Привет, Гость.
Предлагаем пройти революционный курс по гитаре.
Подарок от PrimaNota.Ru, забирай!