PrimaNota.ru - самый крупный в мире бесплатный архив песенных текстов, аккордов, табулатур и нот


Annihilator - Stonewall - текст песни, таба, видео

Регистрация Запомнить меня
Войти через:  Facebook Google Twitter Vk Yandex Mail.ru

Annihilator - Stonewall - текст песни, таба, видео

Печатать
Просмотров: 272
Уроки эстрадного вокала в Санкт-Петербурге
Annihilator - Stonewall

tabbed by
ol753_357lo@yahoo.co.uk

Tuning - E A D G B E


Both Gtrs
  PM--|
|----------|
|----------|
|----------|
|----------|
|----------|
|-00-0-----|


Both Gtrs
         PM     PM--|        PM|    PM--|      PM|   PM|      PM|     PM
|--------------------------------------------------------------------------|
|--------------------------------------------------------------------------|
|--------------------------------------------------------------------------|
|-12--12-----12-------11--11-----11-------5--5-----5-----5--5--------------|
|-10--10-----10--------9---9------9-------3--3-----3-----3--3-----3p0------|
|--------0-0----00-0---------0-0----00-0-------0-0---0-0------0-0-----0----|


         PM|    PM--|        PM|    PM--|      PM|   PM|      PM
|----------------------------------------------------------------------|
|----------------------------------------------------------------------|
|----------------------------------------------------------------------|
|-12--12-----12-------11--11-----11-------5--5-----5-----5--5------7---|
|-10--10-----10--------9---9------9-------3--3-----3-----3--3---5--5---|
|--------0-0----00-0---------0-0----00-0-------0-0---0-0------0-3------|


         PM|    PM--|        PM|    PM--|      PM|   PM|        PM    PM
|------------------------------------------------------------------------|
|------------------------------------------------------------------------|
|------------------------------------------------------------------------|
|-12--12-----12-------11--11-----11-------5--5-----5-----5---------------|
|-10--10-----10--------9---9------9-------3--3-----3-----3--3p0---3p0----|
|--------0-0----00-0---------0-0----00-0-------0-0---0-0--------0-----0--|


         PM|    PM--|        PM|    PM--|      PM|   PM|      PM
|----------------------------------------------------------------------|
|----------------------------------------------------------------------|
|----------------------------------------------------------------------|
|-12--12-----12-------11--11-----11-------5--5-----5-----5--5------7---|
|-10--10-----10--------9---9------9-------3--3-----3-----3--3---5--5---|
|--------0-0----00-0---------0-0----00-0-------0-0---0-0------0-3------|


Gtr 1
|--------------------------------------|
|--------------------------------------|
|-55-5-4-------------------------------|
|---------7-5-4-5-7--------------------|
|-------------------7-6-5--------------|
|-------------------------7-6-5-3-5----|


Gtr 2
|--------------------------------------|
|--------------------------------------|
|-99-9-7-5--------5--------------------|
|-----------9-7-9----------------------|
|-------------------7-6-5--------------|
|-------------------------7-6-5-3-5----|


Chorus
Both Gtrs
play twice
    PM|             PM|         PM  PM|         PM--|     PM|
|--------------------------------------------------------------------|
|-----------------------------------------------------3-3------------|
|-----------------------------------------------------2-2------------|
|---------------------------6-7---------4-3-2---------0-0-----2-2----|
|-2-----6-7-8-9\--2-----6-7-4-5---2-----2-1-0---------0-0-----0-0----|
|-0-0-0-4-5-6-7\--0-0-0-4-5-----0-0-0-0-------3-0-0-0-----0-0--------|


    PM|             PM|         PM  PM|       PM|
|-------------------------------------------------------------------|
|-------------------------------------------------3-----------------|
|-------------------------------------------------2-----------------|
|---------------------------6-7---------4-3-2-----0------0---0------|
|-2-----6-7-8-9\--2-----6-7-4-5---2-----2-1-0-----0--0-2------------|
|-0-0-0-4-5-6-7\--0-0-0-4-5-----0-0-0-0-------3-0----------3---2----|


Both Gtrs
|-------------0------------------------------------2---0h2p0-------|
|-----0-----0------------0---------------------------3-------3-----|
|---0-----0----------5-----5--------0-----0------2-------------2---|
|-2-----4----------7---7-----7----2-----0------0-------------------|
|----------------0--------------0-----2-----3----------------------|
|------------------------------------------------------------------|


|-------------0------------------------------------2---0h2p0-----|
|-----0-----0------------0---------------------------3-------3---|
|---0-----0----------5-----5--------0-----0------2---------------|
|-2-----4----------7---7-----7----2-----0------0-----------------|
|----------------0--------------0-----2-----3--------------------|
|----------------------------------------------------------------|


Verse
Both Gtrs
play twice
    PM|   PM  PM|   PM|   PM  PM|   PM|   PM  PM|   PM|   PM
|--------------------------------------------------------------------|
|--------------------------------------------------------------------|
|---------------------------------------------------------------0----|
|-------5---5---------------------------5---5------------------------|
|-2-----2---2-----4-----1---1-----2-----2---2-----4-----1-----1------|
|-0-0-0-0-0-0-0-0-2-0-0-2-0-2-0-0-0-0-0-0-0-0-0-0-2-0-0-2-0-2--------|


Pre-Chorus
Both Gtrs
    PM|              PM|              PM|             PM|
|---------------------------------------------------------------------|
|---------------------------------------------------------------------|
|-7-----7--7------7-------7--7-------2-----2--2-----0-----0--0--------|
|-7-----7--7------7-------7--7-------2-----2--2-----0-----0--0--------|
|------------0h9-10------10-10------------------0h2-------------------|
|---7-7-----------7--7-7--7--7--0h2----2-2------------0-0------5S7----|

    PM|              PM|              PM|            PM|
|---------------------------------------------------------------------|
|---------------------------------------------------------------------|
|-7-----7--7------7-------7--7-------2-----2--2-----0-----0-----------|
|-7-----7--7------7-------7--7-------2-----2--2-----0-----0-----------|
|------------0h9-10------10-10------------------0h2----------8-7-5----|
|---7-7-----------7--7-7--7--7--0h2----2-2------------0-0----6-5-3----|


Repeat Chorus
Repeat Verse
Repeat Pre Chorus
Repeat Chorus


Both Gtrs
|-------------0------------------------------------2---0h2p0-------|
|-----0-----0------------0---------------------------3-------3-----|
|---0-----0----------5-----5--------0-----0------2-------------2---|
|-2-----4----------7---7-----7----2-----0------0-------------------|
|----------------0--------------0-----2-----3----------------------|
|------------------------------------------------------------------|


|-------------0------------------------------------2---0h2p0-----|
|-----0-----0------------0---------------------------3-------3---|
|---0-----0----------5-----5--------0-----0------2---------------|
|-2-----4----------7---7-----7----2-----0------0-----------------|
|----------------0--------------0-----2-----3--------------------|
|----------------------------------------------------------------|


Both Gtrs
|--------------------------------------------------------------------------------|
|--------------------------------------------------------------------------------|
|-------------------------------------------------------------------7-6----------|
|--------------------------4S3----------------5----------------7--5-5-4----------|
|--2---2--------------4--2-2S1----------------3----------------5--3--------4-4---|
|-\0---0--------------2--0-------------------------------------------------2-2---|


                                (toggle pickups
                                 listen for rhythm)
|--------------------------------------------------------------------------------|
|--------------------------------------------------------------------------------|
|-------------------------------------------------------------------7-6----------|
|--------------------------4S3------------------7-5---5--------7--5-5-4----------|
|--2---2--------------4--2-2S1------------------5-3---3--------5--3--------4-4---|
|-\0---0--------------2--0-------------------------------------------------2-2---|


Both Gtrs
play twice
    PM|             PM|              PM|            PM|
|------------------------------------------------------------------|
|------------------------------------------------------------------|
|-7-----7--7------7------7---7-----2-----2--2-----0-----0--0-------|
|-7-----7--7------7------7---7-----2-----2--2-----0-----0--0-------|
|------------0h9-10-----10--10----------------0h2------------------|
|---7-7-----------7-7-7--7---7-0h2---2-2------------0-0------5S7---|


    PM|             PM|              PM|            PM|
|--------------------------------------------------------------|
|--------------------------------------------------------------|
|-7-----7--7------7------7---7-----2-----2--2-----0-0----------|
|-7-----7--7------7------7---7-----2-----2--2-----0-0---2-2----|
|------------0h9-10-----10--10----------------0h2-2-2---0-0----|
|---7-7-----------7-7-7--7---7-0h2---2-2----------3-3----------|


Gtr 3
|----------------------7h9p7----7------------------------------------------------------|
|-10b12=======*=======-------10---10p7---7h10p7-7--------------------------------------| 
harmonic on 24th fret
|--------------------------------------9----------10p9p7---9p8p7---7-------7-----------|
|--------------------------------------------------------9-------9---9p7-----9p7---9---|
|------------------------------------------------------------------------9-------9-----|
|--------------------------------------------------------------------------------------|


  PM  PM  PM  PM  PM
|-----------------------------------------------------------------|
|-----------------------------2h=3p2--------2h3-3----14-15-14-15--|
|---7---6---7---9---7-6--------------2-2h4------4----14-16-14-16--|
|-----------------------------------------------------------------|
|-9---9---7---9---9-----------------------------------------------|
|-----------------------------------------------------------------|


|-12h14p12----12----------12h14p12----12----------12h14p12----12----------12h14p12----12-------------|
|----------15----15-14-12----------15----15-14-12----------15----15-14-12----------15----15-14-12----|
|----------------------------------------------------------------------------------------------------|
|----------------------------------------------------------------------------------------------------|
|----------------------------------------------------------------------------------------------------|
|----------------------------------------------------------------------------------------------------|


|-15-14-12-------------12-14-12-15-14-17-15-14----15-14-------14----------------|
|----------15-14-12-15-------------------------17-------17-15----17-15-14-------|
|-------------------------------------------------------------------------16----|
|-------------------------------------------------------------------------------|
|-------------------------------------------------------------------------------|
|-------------------------------------------------------------------------------|


|-----19---17-17b19--------------------------------------17----------14-15-----------------|
|--------0-----------------19----17----15----14----14-15----15-14-----------14h15----------|
|-/16------------------/16----16----14----12----------------------14-----------------------|
|---------------------------------------------------------------------------------[16]\----|
|------------------------------------------------------------------------------------------|
|------------------------------------------------------------------------------------------|


Both Gtrs
play 4 times
    PM|   PM----------------------|
|---------------------------------|
|---------------------------------|
|-3-----3-------------------------|
|-3-----3-----------5-3--3-3------|
|-------------------3-1--1-0------|
|---3-3---3-3-3-3-3---------------|


Gtr 3
|----------------------|
|----------------------|* decrease bar and play artificial harmonic, raising bar
|-0*-------------------|
|----------------------|
|----------------------|
|----------------------|

Both Gtrs
    PM|   PM|   PM|                  PM|   PM|   PM|
|--------------------------------------------------------------------|
|--------------------------------------------------------------------|
|-3-----3-----3--------------------3-----3-----3---------------------|
|-3-----3-----3-----5-3--3---3-----3-----3-----3-----5-3--3---3------|
|-------------------3-1--1p0-0-----------------------3-1--1p0-0------|
|---3-3---3-3---3-3------------1S3---3-3---3-3---3-3------------1S3--|


    PM|   PM|   PM|                  PM|   PM|   PM|
|----------------------------------------------------|
|----------------------------------------------------|
|-3-----3-----3--------------------3-----3-----3-----|
|-3-----3-----3-----5-3--3---3-----3-----3-----3-----|
|-------------------3-1--1p0-0-----------------------|
|---3-3---3-3---3-3------------1S3---3-3---3-3---3---|


  PM-----------------------|
|--------------------------|
|--------------------------|
|--------------------------|
|-------------------9------|
|-------------------7------|
|-3-0-0-3-0-0-3-0-0--------|


Repeat Verse
Repeat Pre Chorus
Repeat Chorus


Both Gtrs
play to fade
|-------------0------------------------------------2---0h2p0-------|
|-----0-----0------------0---------------------------3-------3-----|
|---0-----0----------5-----5--------0-----0------2-------------2---|
|-2-----4----------7---7-----7----2-----0------0-------------------|
|----------------0--------------0-----2-----3----------------------|
|------------------------------------------------------------------|


Gtr 2
joins 3rd time
play to fade
|-------------0--------------------------------------------------0----------|
|-----0-----0--------------0------------0-------0----------10------10-------|
|---0-----0-----------9------9--------9------11---------11----11------11----|
|-5-----7----------10---10-----10--10-----12------14--0---------------------|
|----------------0----------------------------------------------------------|
|---------------------------------------------------------------------------|


Tablature Legend
----------------
 h   - hammer-on
 p   - pull-off
 b   - bend
 pb  - pre-bend
 r   - bend release (if no number after the r, then release immediately)
 /\  - slide into or out of (from/to "nowhere")
 s   - legato slide
 S   - shift slide
  - natural harmonic
[n]  - artificial harmonic
n(n) - tapped harmonic
 ~   - vibrato
 tr  - trill
 T   - tap
 TP  - trem. picking
 PM  - palm muting
\n/  - tremolo bar dip; n = amount to dip
 \n  - tremolo bar down
 n/  - tremolo bar up
/n\  - tremolo bar inverted dip
 =   - hold bend; also acts as connecting device for hammers/pulls
 <>  - volume swell (louder/softer)
 x   - on rhythm slash represents muted slash
 o   - on rhythm slash represents single note slash

Misc Legend
-----------
 |  - bar
||  - double bar
||o - repeat start
o|| - repeat end
*|  - double bar (ending)
 :  - bar (freetime)
 $  - Segno
 &  - Coda
Tempo markers -  = BPM(8/16=s8/s16), where s8 = swing 8ths, s16 = swing 16ths
Добавлено: 21.07.2012
Другие материалы по этой песне:

Страница создана 06.03.2012
http://primanota.ru/annihilator/stonewall-chords.htm
Привет, Гость.
Предлагаем пройти революционный курс по гитаре.
Подарок от PrimaNota.Ru, забирай!