PrimaNota.ru - самый крупный в мире бесплатный архив песенных текстов, аккордов, табулатур и нот


Annihilator - Human Remains - текст песни, таба, видео

Регистрация Запомнить меня
Войти через:  Facebook Google Twitter Vk Yandex Mail.ru

Annihilator - Human Remains - текст песни, таба, видео

Печатать
Просмотров: 157
Уроки эстрадного вокала в Санкт-Петербурге
Авторы музыки: Jeff Waters
Авторы текста: Big John Bates
Annihilator - Human Remains

tabbed by ol753
www.annihilatormetal.com
ol753_357lo@yahoo.co.uk

Tuning - D A D G B E


Both Gtrs
play twice
  PM-|        PM---|          PM-|
|----------------------------------------------|
|----------------------------------------------|
|----------------------------------------------|
|----------------------------------------------|
|-------6-6\----------6-6-6\--------6-6-6-0----|
|-0--0--6-6\--0--0-0--6-6-6\--0--0--6-6-6-0----|


  PM-|        PM---|         PM-|       PM---|
|--------------------------------------------------------|
|--------------------------------------------------------|
|--------------------------------------------------------|
|--------------------------------------------------------|
|-------6-6\----------6-6-6\-------6-6\---------6-6-6\---|
|-0--0--6-6\--0--0-0--6-6-6\-0--0--6-6\-0--0-0--6-6-6\---|


Verse
Both Gtrs
play 8 times
  PM------------------------|
|------------------------------------|
|------------------------------------|
|-----------------------------[4]----|
|------------------------------------|
|------------------------------------|
|-2-2-2-2-2-2-2-2-2-2-2-2-2-2--------|


Chorus
Both Gtrs
play twice
  PM-|        PM---|          PM-|
|----------------------------------------------|
|----------------------------------------------|
|----------------------------------------------|
|----------------------------------------------|
|-------6-6\----------6-6-6\--------6-6-6-0----|
|-0--0--6-6\--0--0-0--6-6-6\--0--0--6-6-6-0----|


  PM-|        PM---|         PM-|       PM---|
|--------------------------------------------------------|
|--------------------------------------------------------|
|--------------------------------------------------------|
|--------------------------------------------------------|
|-------6-6\----------6-6-6\-------6-6\---------6-6-6\---|
|-0--0--6-6\--0--0-0--6-6-6\-0--0--6-6\-0--0-0--6-6-6\---|


Repeat Verse


Both Gtrs
play 4 times
  PM------------------------|
|------------------------------------|
|------------------------------------|
|-----------------------------[4]----|
|------------------------------------|
|------------------------------------|
|-2-2-2-2-2-2-2-2-2-2-2-2-2-2--------|


Both Gtrs
play 4 times
  PM--------------------------|
|----------------------------------|
|----------------------------------|
|----------------------------------|
|----------------------------------|
|----------------------------------|
|-2-2-2/5-5-5/7-7-7/8-8-8/9-9-9----|


Gtr 1
play 8 times
  PM------------------------|
|------------------------------------|
|------------------------------------|
|-----------------------------[4]----|
|------------------------------------|
|------------------------------------|
|-2-2-2-2-2-2-2-2-2-2-2-2-2-2--------|


Gtr 2
play 8 times
  PM--------------------------|
|----------------------------------|
|----------------------------------|
|----------------------------------|
|----------------------------------|
|----------------------------------|
|-2-2-2/5-5-5/7-7-7/8-8-8/9-9-9----|


Both Gtrs
play twice, Gtr 3 Lead (to be added)
  PM-|        PM---|          PM-|
|----------------------------------------------|
|----------------------------------------------|
|----------------------------------------------|
|----------------------------------------------|
|-------6-6\----------6-6-6\--------6-6-6-0----|
|-0--0--6-6\--0--0-0--6-6-6\--0--0--6-6-6-0----|


  PM-|        PM---|         PM-|       PM---|
|--------------------------------------------------------|
|--------------------------------------------------------|
|--------------------------------------------------------|
|--------------------------------------------------------|
|-------6-6\----------6-6-6\-------6-6\---------6-6-6\---|
|-0--0--6-6\--0--0-0--6-6-6\-0--0--6-6\-0--0-0--6-6-6\---|


Both Gtrs
play 12 times
  PM------------------------|
|------------------------------------|
|------------------------------------|
|-----------------------------[4]----|
|------------------------------------|
|------------------------------------|
|-2-2-2-2-2-2-2-2-2-2-2-2-2-2--------|


Both Gtrs
play 4 times
  PM-|        PM---|         PM-|       PM---|
|--------------------------------------------------------|
|--------------------------------------------------------|
|--------------------------------------------------------|
|--------------------------------------------------------|
|-------6-6\----------6-6-6\-------6-6\---------6-6-6\---|
|-0--0--6-6\--0--0-0--6-6-6\-0--0--6-6\-0--0-0--6-6-6\---|


Tablature Legend
----------------
 h   - hammer-on
 p   - pull-off
 b   - bend
 pb  - pre-bend
 r   - bend release (if no number after the r, then release immediately)
 /\  - slide into or out of (from/to "nowhere")
 s   - legato slide
 S   - shift slide
  - natural harmonic
[n]  - artificial harmonic
n(n) - tapped harmonic
 ~   - vibrato
 tr  - trill
 T   - tap
 TP  - trem. picking
 PM  - palm muting
\n/  - tremolo bar dip; n = amount to dip
 \n  - tremolo bar down
 n/  - tremolo bar up
/n\  - tremolo bar inverted dip
 =   - hold bend; also acts as connecting device for hammers/pulls
 <>  - volume swell (louder/softer)
 x   - on rhythm slash represents muted slash
 o   - on rhythm slash represents single note slash

Misc Legend
-----------
 |  - bar
||  - double bar
||o - repeat start
o|| - repeat end
*|  - double bar (ending)
 :  - bar (freetime)
 $  - Segno
 &  - Coda
Tempo markers -  = BPM(8/16=s8/s16), where s8 = swing 8ths, s16 = swing 16ths

Добавлено: 26.09.2013
Другие материалы по этой песне:
  • Аккорды и текст

Страница создана 18.06.2012
http://primanota.ru/annihilator/human-remains-chords.htm
Привет, Гость.
Предлагаем пройти революционный курс по гитаре.
Подарок от PrimaNota.Ru, забирай!