PrimaNota.ru - самый крупный в мире бесплатный архив песенных текстов, аккордов, табулатур и нот


Annihilator - Hunger - текст песни, таба, видео

Регистрация Запомнить меня
Войти через:  Facebook Google Twitter Vk Yandex Mail.ru

Annihilator - Hunger - текст песни, таба, видео

Печатать
Просмотров: 126
Авторы музыки: Jeff Waters
Авторы текста: Big John Bates, Jeff Waters
Annihilator - Hunger

tabbed by 
ol753_357lo@yahoo.co.uk

Tuning - E A D G B E


Gtr 1
play twice
       PM     PM      PM     PM      PM
|-----------------------------------------------------------------|
|-----------------------------------------------------------------|
|-----------------------------------------------------------------|
|-4--4----4------4--4----4------4--4----4------------0-------0----|
|-2--2-0--2p0-0--2--2-0--2p0-0--2--2-0--2p0--------2-------4---4--|
|--------------------------------------------0-2-3------/5--------|


       PM     PM      PM     PM      PM
|-------------------------------------------------------------|
|-------------------------------------------------------------|
|-------------------------------------------------------------|
|-4--4----4------4--4----4------4--4----4------------0------0-|
|-2--2-0--2p0-0--2--2-0--2p0-0--2--2-0--2p0--------2------0---|
|--------------------------------------------0-2-3------2-----|


Gtr 2
|-------------------------------------------------|
|-------------------------------------------------|
|-------------------------------------------------|
|-4----------------------------------0-------0----|
|-2--------------------------------2-------4---4--|
|----------------------------0-2-3------/5--------|


|---------------------------------------------|
|---------------------------------------------|
|---------------------------------------------|
|-4----------------------------------0------0-|
|-2--------------------------------2------0---|
|----------------------------0-2-3------2-----|


Both Gtrs
play twice, Gtr 3 & 4 (to be added)
       PM     PM      PM     PM      PM
|-----------------------------------------------------------------|
|-----------------------------------------------------------------|
|-----------------------------------------------------------------|
|-4--4----4------4--4----4------4--4----4------------0-------0----|
|-2--2-0--2p0-0--2--2-0--2p0-0--2--2-0--2p0--------2-------4---4--|
|--------------------------------------------0-2-3------/5--------|


       PM     PM      PM     PM      PM
|-------------------------------------------------------------|
|-------------------------------------------------------------|
|-------------------------------------------------------------|
|-4--4----4------4--4----4------4--4----4------------0------0-|
|-2--2-0--2p0-0--2--2-0--2p0-0--2--2-0--2p0--------2------0---|
|--------------------------------------------0-2-3------2-----|


Verse
Both Gtrs
play twice
       PM     PM      PM     PM      PM
|-----------------------------------------------------------------|
|-----------------------------------------------------------------|
|-----------------------------------------------------------------|
|-4--4----4------4--4----4------4--4----4------------0-------0----|
|-2--2-0--2p0-0--2--2-0--2p0-0--2--2-0--2p0--------2-------4---4--|
|--------------------------------------------0-2-3------/5--------|


       PM     PM      PM     PM      PM
|-------------------------------------------------------------|
|-------------------------------------------------------------|
|-------------------------------------------------------------|
|-4--4----4------4--4----4------4--4----4------------0------0-|
|-2--2-0--2p0-0--2--2-0--2p0-0--2--2-0--2p0--------2------0---|
|--------------------------------------------0-2-3------2-----|


Chorus
Both Gtrs
play 3 times, Gtr 3 (to be added)
       PM----|      PM----|      PM----|
|----------------------------------------------------------|
|---------------------------------------------3--3-3--2----|
|---------------------------0--0--------------2--2-2--2----|
|--------------0--0---------0--0---------2--2-2--2-2--2----|
|-2--2---------0--0---------2--2---------0--0-0--0-0--0----|
|-0--0-0--0--0-2--2-2--2--2-3--3-3--3--3-------------------|


4th time
|-------------------------------------|
|----------------------------3---2----|
|------------------0----0----2---2----|
|-2-------0--------0----0----0---2----|
|-2-------0--------2----2----0---0----|
|-0-------2--------3----3-------------|


Both Gtrs, Gtr 3 & 4 (to be added)
       PM     PM      PM     PM      PM
|-----------------------------------------------------------------|
|-----------------------------------------------------------------|
|-----------------------------------------------------------------|
|-4--4----4------4--4----4------4--4----4------------0-------0----|
|-2--2-0--2p0-0--2--2-0--2p0-0--2--2-0--2p0--------2-------4---4--|
|--------------------------------------------0-2-3------/5--------|


       PM     PM      PM     PM      PM
|-------------------------------------------------------------|
|-------------------------------------------------------------|
|-------------------------------------------------------------|
|-4--4----4------4--4----4------4--4----4------------0------0-|
|-2--2-0--2p0-0--2--2-0--2p0-0--2--2-0--2p0--------2------0---|
|--------------------------------------------0-2-3------2-----|


Repeat Verse
Repeat Chorus


Both Gtrs
play twice, Gtr 3 Lead (to be added)
       PM     PM      PM     PM      PM
|-----------------------------------------------------------------|
|-----------------------------------------------------------------|
|-----------------------------------------------------------------|
|-4--4----4------4--4----4------4--4----4------------0-------0----|
|-2--2-0--2p0-0--2--2-0--2p0-0--2--2-0--2p0--------2-------4---4--|
|--------------------------------------------0-2-3------/5--------|


       PM     PM      PM     PM      PM
|-------------------------------------------------------------|
|-------------------------------------------------------------|
|-------------------------------------------------------------|
|-4--4----4------4--4----4------4--4----4------------0------0-|
|-2--2-0--2p0-0--2--2-0--2p0-0--2--2-0--2p0--------2------0---|
|--------------------------------------------0-2-3------2-----|


Both Gtrs
play 3 times
       PM----|      PM----|      PM----|
|----------------------------------------------------------|
|---------------------------------------------3--3-3--2----|
|---------------------------0--0--------------2--2-2--2----|
|--------------0--0---------0--0---------2--2-2--2-2--2----|
|-2--2---------0--0---------2--2---------0--0-0--0-0--0----|
|-0--0-0--0--0-2--2-2--2--2-3--3-3--3--3-------------------|


4th time
|-------------------------------------|
|----------------------------3---2----|
|------------------0----0----2---2----|
|-2-------0--------0----0----0---2----|
|-2-------0--------2----2----0---0----|
|-0-------2--------3----3-------------|


Gtr 1
play twice
       PM     PM      PM     PM      PM
|-----------------------------------------------------------------|
|-----------------------------------------------------------------|
|-----------------------------------------------------------------|
|-4--4----4------4--4----4------4--4----4------------0-------0----|
|-2--2-0--2p0-0--2--2-0--2p0-0--2--2-0--2p0--------2-------4---4--|
|--------------------------------------------0-2-3------/5--------|


       PM     PM      PM     PM      PM
|-------------------------------------------------------------|
|-------------------------------------------------------------|
|-------------------------------------------------------------|
|-4--4----4------4--4----4------4--4----4------------0------0-|
|-2--2-0--2p0-0--2--2-0--2p0-0--2--2-0--2p0--------2------0---|
|--------------------------------------------0-2-3------2-----|


Gtr 2
|-------------------------------------------------|
|-------------------------------------------------|
|-------------------------------------------------|
|-4----------------------------------0-------0----|
|-2--------------------------------2-------4---4--|
|----------------------------0-2-3------/5--------|


|---------------------------------------------|
|---------------------------------------------|
|---------------------------------------------|
|-4----------------------------------0------0-|
|-2--------------------------------2------0---|
|----------------------------0-2-3------2-----|


Both Gtrs
       PM     PM      PM     PM      PM
|-----------------------------------------------------------------|
|-----------------------------------------------------------------|
|-----------------------------------------------------------------|
|-4--4----4------4--4----4------4--4----4------------0-------0----|
|-2--2-0--2p0-0--2--2-0--2p0-0--2--2-0--2p0--------2-------4---4--|
|--------------------------------------------0-2-3------/5--------|


       PM     PM      PM     PM      PM
|-------------------------------------------------------------|
|-------------------------------------------------------------|
|-------------------------------------------------------------|
|-4--4----4------4--4----4------4--4----4------------0------0-|
|-2--2-0--2p0-0--2--2-0--2p0-0--2--2-0--2p0--------2------0---|
|--------------------------------------------0-2-3------2-----|


Repeat Verse
Repeat Chorus


Both Gtrs
plays to fade, Gtr 3 Lead (to be added)
       PM     PM      PM     PM      PM
|-----------------------------------------------------------------|
|-----------------------------------------------------------------|
|-----------------------------------------------------------------|
|-4--4----4------4--4----4------4--4----4------------0-------0----|
|-2--2-0--2p0-0--2--2-0--2p0-0--2--2-0--2p0--------2-------4---4--|
|--------------------------------------------0-2-3------/5--------|


       PM     PM      PM     PM      PM
|-------------------------------------------------------------|
|-------------------------------------------------------------|
|-------------------------------------------------------------|
|-4--4----4------4--4----4------4--4----4------------0------0-|
|-2--2-0--2p0-0--2--2-0--2p0-0--2--2-0--2p0--------2------0---|
|--------------------------------------------0-2-3------2-----|


Tablature Legend
----------------
 h   - hammer-on
 p   - pull-off
 b   - bend
 pb  - pre-bend
 r   - bend release (if no number after the r, then release immediately)
 /\  - slide into or out of (from/to "nowhere")
 s   - legato slide
 S   - shift slide
  - natural harmonic
[n]  - artificial harmonic
n(n) - tapped harmonic
 ~   - vibrato
 tr  - trill
 T   - tap
 TP  - trem. picking
 PM  - palm muting
\n/  - tremolo bar dip; n = amount to dip
 \n  - tremolo bar down
 n/  - tremolo bar up
/n\  - tremolo bar inverted dip
 =   - hold bend; also acts as connecting device for hammers/pulls
 <>  - volume swell (louder/softer)
 x   - on rhythm slash represents muted slash
 o   - on rhythm slash represents single note slash

Misc Legend
-----------
 |  - bar
||  - double bar
||o - repeat start
o|| - repeat end
*|  - double bar (ending)
 :  - bar (freetime)
 $  - Segno
 &  - Coda
Tempo markers -  = BPM(8/16=s8/s16), where s8 = swing 8ths, s16 = swing 16ths

Добавлено: 06.10.2013
Другие материалы по этой песне:
  • Аккорды и текст

Страница создана 03.05.2012
http://primanota.ru/annihilator/hunger-chords.htm
Привет, Гость.
Предлагаем пройти революционный курс по гитаре.
Подарок от PrimaNota.Ru, забирай!