PrimaNota.ru - самый крупный в мире бесплатный архив песенных текстов, аккордов, табулатур и нот


Annihilator - The Box - текст песни, таба, видео

Регистрация Запомнить меня
Войти через:  Facebook Google Twitter Vk Yandex Mail.ru

Annihilator - The Box - текст песни, таба, видео

Печатать
Просмотров: 186
Annihilator - The Box

tabbed by ol753
www.annihilatormetal.com
ol753_357lo@yahoo.co.uk

Tuning - D A D G B E


(bass and drums)


Gtr 1
play 7 times, Gtr 2 accentuates
  PM--|     PM|
|--------------------|
|--------------------|
|---------------8----|
|---------------7----|
|-------8p5-----6----|
|-0-0-0-----0-0------|


Gtr 2
play 3 times, joins 5th time
  PM--|     PM|
|---------------------|
|---------------------|
|---------------11----|
|---------------10----|
|-------8p5------9----|
|-0-0-0-----0-0-------|


Gtr 1
8th time
  PM--|     PM|
|------------------------------------|
|------------------------------------|
|---------------8--------------------|
|---------------7--------------------|
|-------8p5-----6-----------------1--|
|-0-0-0-----0-0-------------------1--|


Gtr 2
4th time
  PM--|     PM|
|------------------------------------|
|------------------------------------|
|---------------11-------------------|
|---------------10-------------------|
|-------8p5------9----------------1--|
|-0-0-0-----0-0-------------------1--|


Verse
Both Gtrs
play 4 times
    PM|     PM|   PM------------------|     PM|   PM--------|
|------------------------------------------------------------------|
|------------------------------------------------------------------|
|------------------------------------------------------------------|
|------------------------------------------------------------------|
|-0-----8p5-----6-----------------------8p5-----6-------------1----|
|-0-0-0-----0-0-6-0-0-0-0-0-0-0-0-0-0-0-----0-0-6-0-0-0-0-0-0-1----|


Gtr 1
play 4 times
  PM--|     PM|
|--------------------|
|--------------------|
|---------------8----|
|---------------7----|
|-------8p5-----6----|
|-0-0-0-----0-0------|


Gtr 2
play 4 times
  PM--|     PM|
|---------------------|
|---------------------|
|---------------11----|
|---------------10----|
|-------8p5------9----|
|-0-0-0-----0-0-------|


Repeat Verse


Both Gtrs
play 4 times, Gtr 3 Lead (to be added)
  PM      PM      PM--|       PM      PM|
|--------------------------------------------|
|--------------------------------------------|
|--------------------------------------------|
|--------------------------------------------|
|---10-12---10-12-------10-12---10-13--------|
|-0-10-12-0-10-12-0-0-0-10-12-0-10-13-0-0----|


Both Gtrs
play 4 times
    PM|     PM|   PM------------------|     PM|   PM--------|
|------------------------------------------------------------------|
|------------------------------------------------------------------|
|------------------------------------------------------------------|
|------------------------------------------------------------------|
|-0-----8p5-----6-----------------------8p5-----6-------------1----|
|-0-0-0-----0-0-6-0-0-0-0-0-0-0-0-0-0-0-----0-0-6-0-0-0-0-0-0-1----|


Gtr 1
play 4 times
  PM--|     PM|
|--------------------|
|--------------------|
|---------------8----|
|---------------7----|
|-------8p5-----6----|
|-0-0-0-----0-0------|


Gtr 2
play 4 times
  PM--|     PM|
|---------------------|
|---------------------|
|---------------11----|
|---------------10----|
|-------8p5------9----|
|-0-0-0-----0-0-------|


Both Gtrs
play 4 times
    PM|     PM|   PM------------------|     PM|   PM--------|
|------------------------------------------------------------------|
|------------------------------------------------------------------|
|------------------------------------------------------------------|
|------------------------------------------------------------------|
|-0-----8p5-----6-----------------------8p5-----6-------------1----|
|-0-0-0-----0-0-6-0-0-0-0-0-0-0-0-0-0-0-----0-0-6-0-0-0-0-0-0-1----|


Gtr 1
play 8 times
  PM--|     PM|
|--------------------|
|--------------------|
|---------------8----|
|---------------7----|
|-------8p5-----6----|
|-0-0-0-----0-0------|


Gtr 2
play 8 times
  PM--|     PM|
|---------------------|
|---------------------|
|---------------11----|
|---------------10----|
|-------8p5------9----|
|-0-0-0-----0-0-------|


Both Gtrs
repeat to fade
play 3 times
  PM      PM      PM--|       PM      PM|
|--------------------------------------------|
|--------------------------------------------|
|--------------------------------------------|
|--------------------------------------------|
|---10-12---10-12-------10-12---10-13--------|
|-0-10-12-0-10-12-0-0-0-10-12-0-10-13-0-0----|


4th time
  PM      PM      PM--|       PM      
|--------------------------------------------|
|--------------------------------------------|
|--------------------------------------------|
|--------------------------------------------|
|---10-12---10-12-------10-12---10-13--------|
|-0-10-12-0-10-12-0-0-0-10-12-0-10-13-0------|


Tablature Legend
----------------
 h   - hammer-on
 p   - pull-off
 b   - bend
 pb  - pre-bend
 r   - bend release (if no number after the r, then release immediately)
 /\  - slide into or out of (from/to "nowhere")
 s   - legato slide
 S   - shift slide
  - natural harmonic
[n]  - artificial harmonic
n(n) - tapped harmonic
 ~   - vibrato
 tr  - trill
 T   - tap
 TP  - trem. picking
 PM  - palm muting
\n/  - tremolo bar dip; n = amount to dip
 \n  - tremolo bar down
 n/  - tremolo bar up
/n\  - tremolo bar inverted dip
 =   - hold bend; also acts as connecting device for hammers/pulls
 <>  - volume swell (louder/softer)
 x   - on rhythm slash represents muted slash
 o   - on rhythm slash represents single note slash

Misc Legend
-----------
 |  - bar
||  - double bar
||o - repeat start
o|| - repeat end
*|  - double bar (ending)
 :  - bar (freetime)
 $  - Segno
 &  - Coda
Tempo markers -  = BPM(8/16=s8/s16), where s8 = swing 8ths, s16 = swing 16ths
Добавлено: 06.08.2013
Другие материалы по этой песне:
  • Аккорды и текст

Страница создана 05.06.2012
http://primanota.ru/annihilator/the-box-chords.htm
Привет, Гость.
Предлагаем пройти революционный курс по гитаре.
Подарок от PrimaNota.Ru, забирай!