PrimaNota.ru - самый крупный в мире бесплатный архив песенных текстов, аккордов, табулатур и нот


Annihilator - Fiasco - текст песни, таба, видео

Регистрация Запомнить меня
Войти через:  Facebook Google Twitter Vk Yandex Mail.ru

Annihilator - Fiasco - текст песни, таба, видео

Печатать
Просмотров: 154
Уроки эстрадного вокала в Санкт-Петербурге
Авторы музыки: Jeff Waters
Авторы текста: Jeff Waters
Annihilator - Fiasco

tabbed by 
ol753_357lo@yahoo.co.uk

Tuning - E A D G B E


Both Gtrs
play 3 times
|--------0-----------0----------0---0---0----|
|---8-----------8----------8--------5---5----|
|-----11----------11---------11-----6---5----|
|-9----------10----------9----------7---7----|
|-----------------------------------0---0----|
|--------------------------------------------|


4th time
|--------0-----------0----------0---0-------|
|---8-----------8----------8--------5-------|
|-----11----------11---------11-----6-------|
|-9----------10----------9----------7-------|
|-----------------------------------0-------|
|-------------------------------------------|


Gtr 3
4th time
  PM--------------------------------------------|
|-------------------------------------------------0----|
|-------------------------------------------------5----|
|-------------------------------------------------6----|
|-------------------------------------------------7----|
|-------------------------------------------------0----|
|-0-0-0-0-0-0-0-0-0-0-0-0-0-0-0-0-0-0-0-0-0-0-0-0------|


Gtr 1
   PM
|---------------------------15----|
|-----8\--------------------------|
|-----7\--------------------------|
|-----6\--------------------------|
|--**-----------------------------|
|---------------------------------|


Both Gtrs, Gtr 3 Lead (to be added)
       PM|   PM|                     PM|   PM|     PM--|     
|-----------------------------------------------------------------|
|-----------------------------------------------------------------|
|-----------------------------------------------------------------|
|-9--9-----9--------------------9--9-----9------------------------|
|-7--7-----7-----5--7-5---8-7---7--7-----7-----5-5-------8-7------|
|------0-0---0-0-3--5-3-0-6-5-0------0-0---0-0-3-3-5-3-0-6-5-0----|


       PM|   PM|                     PM|   PM|          PM--|
|----------------------------------------------------------------|
|----------------------------------------------------------------|
|----------------------------------------------------------------|
|-9--9-----9--------------------9--9-----9-----------------------|
|-7--7-----7-----5--7-5---8-7---7--7-----7-----5--7-5------------|
|------0-0---0-0-3--5-3-0-6-5-0------0-0---0-0-3--5-3-0-6-5-0----|


Verse
Both Gtrs
play 4 times
             PM|            PM|
|----------------------------------|
|-9--9-7-9-9-----9--9-7-9-9--------|
|-9--9-7-9-9-----9--9-7-9-9--------|
|-9--9-7S9-9-----9--9-7S9-9--------|
|-7--7-5S7-7-----7--7-5S7-7--------|
|------------0-0------------0-0----|


Chorus
Both Gtrs
             PM|                           PM|     PM--|
|-----------------------------------------------------------------|
|-----------------------------------------------------------------|
|-----------------------------------------------------------------|
|-9--9-7S9-9--------------------9--9-7S9-9------------------------|
|-7--7-5S7-7-----5--7-5---8-7---7--7-5S7-7-----5-5-------8-7------|
|------------0-0-3--5-3-0-6-5-0------------0-0-3-3-5-3-0-6-5-0----|


             PM|                           PM|
|---------------------------------------------------|
|---------------------------------------------------|
|---------------------------------------------------|
|-9--9-7S9-9--------------------9--9-7S9-9----------|
|-7--7-5S7-7-----5--7-5---8-7---7--7-5S7-7-2-4-5----|
|------------0-0-3--5-3-0-6-5-0------------0-2-3----|


Both Gtrs, Gtr 3 Lead (to be added)
       PM|   PM|                     PM|   PM|     PM--|
|-----------------------------------------------------------------|
|-----------------------------------------------------------------|
|-----------------------------------------------------------------|
|-9--9-----9--------------------9--9-----9------------------------|
|-7--7-----7-----5--7-5---8-7---7--7-----7-----5-5-------8-7------|
|------0-0---0-0-3--5-3-0-6-5-0------0-0---0-0-3-3-5-3-0-6-5-0----|


       PM|   PM|                     PM|   PM|          PM--|
|----------------------------------------------------------------|
|----------------------------------------------------------------|
|----------------------------------------------------------------|
|-9--9-----9--------------------9--9-----9-----------------------|
|-7--7-----7-----5--7-5---8-7---7--7-----7-----5--7-5------------|
|------0-0---0-0-3--5-3-0-6-5-0------0-0---0-0-3--5-3-0-6-5-0----|


Repeat Verse


Chorus
Both Gtrs
             PM|                           PM|     PM--|
|-----------------------------------------------------------------|
|-----------------------------------------------------------------|
|-----------------------------------------------------------------|
|-9--9-7S9-9--------------------9--9-7S9-9------------------------|
|-7--7-5S7-7-----5--7-5---8-7---7--7-5S7-7-----5-5-------8-7------|
|------------0-0-3--5-3-0-6-5-0------------0-0-3-3-5-3-0-6-5-0----|


             PM|                           PM|
|---------------------------------------------------|
|---------------------------------------------------|
|---------------------------------------------------|
|-9--9-7S9-9--------------------9--9-7S9-9----------|
|-7--7-5S7-7-----5--7-5---8-7---7--7-5S7-7---5-5----|
|------------0-0-3--5-3-0-6-5-0------------0-2-3----|


Gtr 1
play 3 times
|---------------------------------|
|---------------------------------|
|----------------------------7----|
|-9--9-11-11-9-9-11-11-9-11--7----|
|-7--7--7--7-7-7--7--7-7--7-------|
|---------------------------------|


4th time
|------|
|------|
|------|
|------|
|-2----|
|-0----|


Both Gtrs
play 4 times
|---------------------------------|
|---------------------------------|
|----------------------------7----|
|-9--9-11-11-9-9-11-11-9-11--7----|
|-7--7--7--7-7-7--7--7-7--7-------|
|---------------------------------|


Both Gtrs
play 3 times
       PM|   PM--|             PM
|-----------------------------------|
|-----------------------------------|
|-------------------------7--7------|
|-9--9-----9-------9-11---7--7------|
|-7--7-----7-------7--7-------------|
|------0-0---0-0-0------0------0----|


4th time
|--------------------------|
|--------------------------|
|--------------------------|
|--------------------------|
|-7--7-4--7--4--------5----|
|---------------0-3-4------|


Both Gtrs
play 3 times
         PM
|-----------------------------------|
|-----------------------------------|
|-----------------------------------|
|-----------------------------------|
|-2--8-7---5S7-------5--------------|
|-0--6-5-0-3S5-0-3-4---4-3-0-3-4----|


4th time
         PM    
|--------------------------------|
|--------------------------------|
|--------------------------------|
|--------------------------------|
|-2--8-7---5S7-----5-5--5-4-3----|
|-0--6-5-0-3S5---0-3-3--3-2-1----|


Both Gtrs, Gtr 3 Lead (to be added)
       PM|   PM|                     PM|   PM|     PM--|
|-----------------------------------------------------------------|
|-----------------------------------------------------------------|
|-----------------------------------------------------------------|
|-9--9-----9--------------------9--9-----9------------------------|
|-7--7-----7-----5--7-5---8-7---7--7-----7-----5-5-------8-7------|
|------0-0---0-0-3--5-3-0-6-5-0------0-0---0-0-3-3-5-3-0-6-5-0----|


       PM|   PM|                     PM|   PM|          PM--|
|----------------------------------------------------------------|
|----------------------------------------------------------------|
|----------------------------------------------------------------|
|-9--9-----9--------------------9--9-----9-----------------------|
|-7--7-----7-----5--7-5---8-7---7--7-----7-----5--7-5------------|
|------0-0---0-0-3--5-3-0-6-5-0------0-0---0-0-3--5-3-0-6-5-0----|



Both Gtrs
       PM----------------------|    PM------|      PM     PM
|--------------------------------------------------------------|
|--------------------------------------------------------------|
|---------------------------------------------2------4---------|
|---------------------------------------------2------4---------|
|-4--4---------------------------4-----------------------------|
|-2--2-2-2-2-2-2-2-2-2-2-2-2-2-2-2--2-2-2-2-2----2-2----2-2----|


       PM|   PM|                                       PM|
|-------------------------------------------------------------|
|-------------------------------------------------------------|
|-------------------------------------------------------------|
|-9--9-----9---------------------9--9-7S9-7S9-----------------|
|-7--7-----7-----5--7-5---8-7----7--7-5S7-5S7-5S6-------------|
|------0-0---0-0-3--5-3-0-6-5-0---------------3S4------6-6----|


Both Gtrs
|--------0-----------0----------0---0---0----|
|---8-----------8----------8--------5---5----|
|-----11----------11---------11-----6---5----|
|-9----------10----------9----------7---7----|
|-----------------------------------0---0----|
|--------------------------------------------|


|--------0-----------0----------0---0-------|
|---8-----------8----------8--------5-------|
|-----11----------11---------11-----6-------|
|-9----------10----------9----------7-------|
|-----------------------------------0-------|
|-------------------------------------------|


Gtr 3
  PM------------|
|------------------0----|
|------------------5----|
|------------------6----|
|------------------7----|
|------------------0----|
|-0-0-0-0-0-0-0-0-------|


Chorus
Both Gtrs
play 4 times
               PM                            PM    PM--|
|-----------------------------------------------------------------|
|-----------------------------------------------------------------|
|-----------------------------------------------------------------|
|-9--9-7S9-9--------------------9--9-7S9-9------------------------|
|-7--7-5S7-7-----5--7-5---8-7---7--7-5S7-7-----5-5-------8-7------|
|------------0-0-3--5-3-0-6-5-0------------0-0-3-3-5-3-0-6-5-0----|


Chorus
Both Gtrs
play 3 times, Gtr 3 Lead (to be added)
             PM|                           PM|     PM--|
|-----------------------------------------------------------------|
|-----------------------------------------------------------------|
|-----------------------------------------------------------------|
|-9--9-7S9-9--------------------9--9-7S9-9------------------------|
|-7--7-5S7-7-----5--7-5---8-7---7--7-5S7-7-----5-5-------8-7------|
|------------0-0-3--5-3-0-6-5-0------------0-0-3-3-5-3-0-6-5-0----|


4th time
             PM|                           PM|
|---------------------------------------------------|
|---------------------------------------------------|
|---------------------------------------------------|
|-9--9-7S9-9--------------------9--9-7S9-9----------|
|-7--7-5S7-7-----5--7-5---8-7---7--7-5S7-7---5-5----|
|------------0-0-3--5-3-0-6-5-0------------0-2-3----|


Both Gtrs
  PM   PM------|      PM--|          PM------|      PM--|
|----------------------------------------------------------------|
|----------------------------------------------------------------|
|----------------------------------------------------------------|
|----------------------------------------------------------------|
|-5-2------------5-2--------5-6-7-2------------5-2--------8--8---|
|-3-0--0-0-0-3-4---0--0-0-0-------0--0-0-0-3-4---0--0-0-0-6--6---|


Both Gtrs, Gtr 3 (to be added)
|---------------------------------------------------|
|---------------------------------------------------|
|---------------------------------------------------|
|---------------------------------------------------|
|-----------------------5--5---2--2----2--2----2----|
|-9-8-6-0-5-6-8-0-6-5-0-3--3---0--0----0--0----0----|


Tablature Legend
----------------
 h   - hammer-on
 p   - pull-off
 b   - bend
 pb  - pre-bend
 r   - bend release (if no number after the r, then release immediately)
 /\  - slide into or out of (from/to "nowhere")
 s   - legato slide
 S   - shift slide
  - natural harmonic
[n]  - artificial harmonic
n(n) - tapped harmonic
 ~   - vibrato
 tr  - trill
 T   - tap
 TP  - trem. picking
 PM  - palm muting
\n/  - tremolo bar dip; n = amount to dip
 \n  - tremolo bar down
 n/  - tremolo bar up
/n\  - tremolo bar inverted dip
 =   - hold bend; also acts as connecting device for hammers/pulls
 <>  - volume swell (louder/softer)
 x   - on rhythm slash represents muted slash
 o   - on rhythm slash represents single note slash

Misc Legend
-----------
 |  - bar
||  - double bar
||o - repeat start
o|| - repeat end
*|  - double bar (ending)
 :  - bar (freetime)
 $  - Segno
 &  - Coda
Tempo markers -  = BPM(8/16=s8/s16), where s8 = swing 8ths, s16 = swing 16ths
Добавлено: 22.10.2013
Другие материалы по этой песне:

Страница создана 13.06.2012
http://primanota.ru/annihilator/fiasco-chords.htm
Привет, Гость.
Предлагаем пройти революционный курс по гитаре.
Подарок от PrimaNota.Ru, забирай!