PrimaNota.ru - самый крупный в мире бесплатный архив песенных текстов, аккордов, табулатур и нот


Airbourne - Blonde Bad And Beautiful - текст песни, таба, драм-таба, видео

Регистрация Запомнить меня
Войти через:  Facebook Google Twitter Vk Yandex Mail.ru

Airbourne - Blonde Bad And Beautiful - текст песни, таба, драм-таба, видео

Печатать
Просмотров: 204
Авторы музыки: Ryan O'Keeffe, Joel O'Keeffe
Авторы текста: Ryan O'Keeffe, Joel O'Keeffe
AIRBOURNE - BLONDE, BAD AND BEAUTIFUL

David Roads rythm guitar



|  tab by DOUGLAS BÁNFALVI  |
|  wwww.youtube.com/rnrgod  |




INTRO: 
e||-------------------------------------||
B||-------------------------------------||
G||--4---------4---------4---------2----||
D||--4----2----4----2----4----2----2----||
A||--2----2----2----2----2----2----0----||
E||-------0---------0---------0---------||



MAIN RIFF:           
e||-------2--------------------------------------------||
B||-------3--------------------------------------------||
G||--4----2----2----4---------2----2---------2----4----||
D||--4---------2----4---------2----2----2----2----4----||
A||--2---------0----2---------0----0----2----0----2----||
E||----------------------3--------------0--------------||



PRE CHORUS:
e|--------------------------------------------------|
B|--------------------------------------------------|
G|-----------------2---------2----------------------|
D|--2----2----2----2----2----2----4----4----4----4--|
A|--2----2----2----0----2----0----4----4----4----4--|
E|--0----0----0---------0---------2----2----2----2--|
 
 |--------------------------------||
 |--------------------------------||
 |--2----2---------2----2---------||
 |--2----2---------2----2----2----||
 |--0----0---------0----0----2----||
 |-----------3---------------0----||
 

CHORUS:
e|----------------------------------------------------|
B|----------------------------------------------------|
G|--4---------2--------------2----4----4----4----4----|
D|--4----2----2----2---------2----4----4----4----4----|
A|--2----2----0----2---------0----2----2----2----2----|
E|-------0---------0----3-----------------------------|

 |----------------------------------------------------||
 |----------------------------------------------------||
 |----------------------2----2--------------2----4----||
 |--2-------------------2----2--------------2----4----||
 |--2----5----4----2----0----0--------------0----2----||
 |--0-----------------------------4----4--------------||



PRE SOLO:
e|--2-----------------------------||
B|--3-----------------------------||
G|--2---------2---------2----4----||
D|-------2----2----2----2----4----||
A|-------2----0----2----0----2----||
E|-------0---------0--------------||



SOLO BASE:
e|-------------------------------------||
B|-------------------------------------||
G|--4---------2--------------2----4----||
D|--4----2----2----2---------2----4----||
A|--2----2----0----2---------0----2----||
E|-------0---------0----3--------------||




BONUS:

JOEL's INTRO:
e||-------------------------------|--------------------------5----||
B||--7--7--5--4--5--5--4--7--7----|--4--7--7--5--4--5--5--4--5----||
G||--4--4--4--4--4--4--4--4--4----|--4--4--4--4--4--4--4--4-------||
D||-------------------------------|-------------------------------||
A||-------------------------------|-------------------------------||
E||-------------------------------|-------------------------------||
Добавлено: 06.09.2013
Другие материалы по этой песне:

Страница создана 06.06.2013
http://primanota.ru/airbourne/blonde-bad-and-beautiful-chords.htm
Привет, Гость.
Предлагаем пройти революционный курс по гитаре.
Подарок от PrimaNota.Ru, забирай!