PrimaNota.ru - самый крупный в мире бесплатный архив песенных текстов, аккордов, табулатур и нот


Airbourne - Armed And Dangerous - таба, видео

Регистрация Запомнить меня
Войти через:  Facebook Google Twitter Vk Yandex Mail.ru

Airbourne - Armed And Dangerous - таба, видео

Печатать
Просмотров: 242
Авторы музыки: Ryan O'Keeffe, Joel O'Keeffe
Авторы текста: Ryan O'Keeffe, Joel O'Keeffe
Airbourne - Armed & Dangerous

Tabbed by: Lazzle22

Email: Lasse2411@hotmail.com
-----------------------------

h   - hammer-on
p   - pull-off
^   - bend
~   - vibrato
/\  - slide
X\\ - pick scrape
<3> - harmonic
X   - mute
•   - palm mute

Tuning is: Standard (EADGBe)

INTRO (00:00)

e|-----------|------------|
B|-----------|--3---------|
G|-------2---|--2--2------|
D|-2---5-2---|--0--2--2---| x2
A|-2---5-0---|-----0--2---|
E|-0---3-----|--------0---|

"Tick... tick... tick"

VERSE RIFF (00:11)

e|-3-3-3-3--x-3-3-3-------------------------------------|
B|-3-3-3-2--x-2-2-3-------------------------------------|
G|-0-0-0-3--x-3-3-2-2--x-2-2----------------------------|
D|-0-0-0------------2--x-2-2----2-2-2-2-x-2-2-2-2-------|x7
A|-2-2-2------------0--x-0-0----2-2-2-2-x-2-2-2-2-------|
E|-3-3-3---------------------3b-0-0-0-0-x-0-0-0-0--x0-2-|

VERSE ENDING

e|-3-3-3-3--x-3-3-3-----------------------------|
B|-3-3-3-2--x-2-2-3-----------------------------|
G|-0-0-0-3--x-3-3-2-2--x-2-2-----4--4--4-4-4-4--|
D|-0-0-0------------2--x-2-2-----4--4--4-4-4-4--|
A|-2-2-2------------0--x-0-0-----2--2--2-2-2-2--|
E|-3-3-3---------------------3b-----------------|

CHORUS A (00:52)

e|-----------------------------|
B|----------3------------------|
G|------2---2--2---------------|
D|-2--5-2---0--2--2------------|x3
A|-2--5-0------0--2------------|
E|-0--3-----------0--3b-5-3~---|

CHORUS A ENDING

e|----------------------------|
B|---------3------------------|
G|------2--2--2--4----7--9/---|
D|-2--5-2--0--2--4--5-7--9/---|
A|-2--5-0-----0--2--5-5--7/---|
E|-0--3-------------3---------|

VERSE RIFF x4 (01:12)

CHORUS A (01:37)

e|-----------------------------|
B|----------3------------------|
G|------2---2--2---------------|
D|-2--5-2---0--2--2------------|x3
A|-2--5-0------0--2------------|
E|-0--3-----------0--3b-5-3~---|

CHORUS A ENDING 

e|-----------------------------|
B|----------3------------------|
G|------2---2--2---------------|
D|-2--5-2---0--2--2------------|
A|-2--5-0------0--2------------|
E|-0--3-----------0--7/--------|


CHORUS B (01:57)

   D  D U  U D  D  D U  U D  D  D U
e|---------------------------------------------|
B|--------------3--3-3--3-0--------------------|
G|-2--2-2--2-0--2--2-2--2-0--------------------|
D|-2--2-2--2-0--0--0-0--0-0--2--2-2------------|x3
A|-0--0-0--0-0---------------2--2-2-4-5-4-2p0--|     
E|---------------------------0--0-0------------|

CHORUS B ENDING

e|-------------------------------------------|
B|-------------3-3-3--3-0--------------------|
G|-2-2-2--2-0--2-2-2--2-0--4--4--4-----------|
D|-2-2-2--2-0--0-0-0--0-0--4--4--4-----------|
A|-0-0-0--0-0--------------2--2--2---x-5-----|
E|-----------------------------------x-3/15--|

SOLO 1 (02:18)

e|-12-----12-----------------------------------------------|
B|-15b17--15b17--12-12-------------------------------------|
G|---------------12-12-15b--15-12-------12~--12-9------9~--|
D|--------------------------------14-12-----------12-9-----|
A|---------------------------------------------------------|
E|---------------------------------------------------------|

e|----------------------------------------------|
B|----------------------------------------------|
G|----------------------------------------------|
D|-----5------------5-----5-----5---------------|
A|-5-7---7~-7~--5h7---5h7---5h7---7-6-5---------|
E|--------------------------------------7-5-3~--|

e|---------------------------------------|
B|-14b--12-------------------------------|
G|---------15-12----12~--12--------------|
D|---------------14---------14-12----14~-|
A|--------------------------------14-----|
E|---------------------------------------|

e|-----------------------------------|
B|-14b-12b-------------------12------|
G|-14b-12b-12----12-14p12----12------|
D|------------14----------14----14~--|
A|-----------------------------------|
E|-----------------------------------|

e|-12-12-------12-------12-------12-------12-------12-12--|
B|-------15b17----15b17----15b17----15b17----15b17--------|
G|--------------------------------------------------------|
D|--------------------------------------------------------|
A|--------------------------------------------------------|
E|--------------------------------------------------------|

e|-16b17-15~--|-15-12----12------------------------------|
B|------------|-------15----15-12-15-12----12------------|
G|------------|-------------------------14----14-12------|
D|------------|-------------------------------------14~--|
A|------------|------------------------------------------|
E|------------|------------------------------------------|

THE RHYTHM UNDERNEATH THE SOLO IS THE VERSE RIFF x 3 THEN VERSE ENDING

CHORUS x3 (02:38)

CHORUS ENDING

*TEMPO CHANGE*

VERSE x 3 (02:58)

BRIDGE INTO SOLO 2 (03:11)

e|---------------------------------------------------|
B|---------------------------------------------------|
G|-7-9--7--7--2--0-2p0-------------------------------|
D|-7-9--7--7--2--------2p0-0h2-0h2-0h2-0h2-0h2h4-2---|
A|---------------------------------------------------|
E|---------------------------------------------------|

SOLO 2 (03:16)

e|-12-12-----12----12----12----12----12--------12----12---12-|
B|-------15b----15b---15b---15b---15b------15b----15b---15b--|
G|-----------------------------------------------------------|
D|-----------------------------------------------------------|
A|-----------------------------------------------------------|
E|-----------------------------------------------------------|

e|---------------------------|
B|-15-12-----12--------------|
G|-------14b----16p15-12-----|
D|-----------------------14--|
A|---------------------------|
E|---------------------------|

e|----------------------------|
B|-12~-14~---12~---12~12------|
G|-12~-14~---12~---12~12------|
D|--------14----14-------14~--|
A|----------------------------|
E|----------------------------|
          •     •        

e|----------------------------------------------|
B|-------12-12-12-15~--12-----12-12-15~--15~----|
G|-12h14------------------14b-------------------|
D|----------------------------------------------|
A|----------------------------------------------|
E|----------------------------------------------|

e|-12-----12-12-----12-12-----12-12-15-12-12-----12-12----|
B|----15b-------15b-------15b----------------15b----------|
G|--------------------------------------------------------|
D|--------------------------------------------------------|
A|--------------------------------------------------------|
E|--------------------------------------------------------|

e|------------------------------------------|
B|-15-12-12---------------------------------|
G|-0--0--0--14b15p12----12~----12~-12~------|
D|-------------------14-----14---------14~--|
A|------------------------------------------|
E|------------------------------------------|

e|-12-----12-12----12-12----12-12----12-12----12-12-12-|
B|----15b-------15b------15b------15b------15b---------|
G|-----------------------------------------------------| 
D|-----------------------------------------------------|
A|-----------------------------------------------------|
E|-----------------------------------------------------|

e|-16b17--16~---x-x--22~~~-|
B|--------------x-x--------|
G|--------------x-x--------|
D|-------------------------|
A|-------------------------|
E|-------------------------|

THIS IS THE RHYTHM UNDERNEATH THE SOLO

e|-3-3-3-3--3-3-3-----------------------------------------|
B|-3-3-3-2--2-2-2-----------------------------------------|
G|-0-0-0-3--3-3-3-2--2-2----------------------------------|
D|-0-0-0----------2--2-2----2-2-2-2--2--2-2-2-2--2p0------| x3
A|-2-2-2----------0--0-0----2-2-2-2--2--2-2-2-2------2p0--|
E|-3-3-3-----------------3b-0-0-0-0--0--0-0-0-0-----------|

e|-3-3-3-3--3-3-3----------------------------|
B|-3-3-3-2--2-2-2----------------------------|
G|-0-0-0-3--3-3-3-2--2-2----4--4--4-4-4-4-4--|
D|-0-0-0----------2--2-2----4--4--4-4-4-4-4--|
A|-2-2-2----------0--0-0----2--2--2-2-2-2-2--|
E|-3-3-3-----------------3b------------------|

CHORUS A x 4 (03:33)

SOLO 3 (03:50)

This one was awefully hard to tab, so it might not be 100% correct

e|-----12-12--|
B|-15b--------|
G|------------|
D|------------|x5
A|------------|
E|------------|

e|-15p12-12----12-12--15p12-12-----12-12-----12-12--|
B|----------15-----------------15b-------15b--------|
G|--------------------------------------------------|
D|--------------------------------------------------|
A|--------------------------------------------------|
E|--------------------------------------------------|

e|-----12-12--|
B|-15b--------|
G|------------|
D|------------|x5
A|------------|
E|------------|

e|-15-12-12-14-12-12-15-12-12-14-12-12-14b15--|
B|--------------------------------------------|
G|--------------------------------------------|
D|--------------------------------------------|
A|--------------------------------------------|
E|--------------------------------------------|

e|-----12-12--|
B|-15b--------|
G|------------|
D|------------|x5
A|------------|
E|------------|

e|-16b17-15-------15~--15p12----12--|
B|----------15h17------------15-----|
G|----------------------------------|
D|----------------------------------|
A|----------------------------------|
E|----------------------------------|

e|-----12-12--|
B|-15b--------|
G|------------|
D|------------|x2
A|------------|
E|------------|

e|-16b17-----------------------|
B|------------12-15p12---------|
G|--------14b----------12------|
D|------------------------14~--|
A|-----------------------------|
E|-----------------------------|

UNDERNEATH SOLO 3 IS CHORUS A PLAYED x 4
-------------------------------------------------------------------

Armed & Dangerous from the new Airbourne album "No Guts. No Glory"
Go buy it. It's definitely worth a listen.

Now, the tab is not 100% correct, but I did my best. Hope you like it!
Добавлено: 23.11.2013
Другие материалы по этой песне:
  • Аккорды и текст

Страница создана 23.11.2013
http://primanota.ru/airbourne/armed-and-dangerous-chords.htm
Привет, Гость.
Предлагаем пройти революционный курс по гитаре.
Подарок от PrimaNota.Ru, забирай!