PrimaNota.ru - самый крупный в мире бесплатный архив песенных текстов, аккордов, табулатур и нот


Airbourne - Girls In Black - текст песни, таба, видео

Регистрация Запомнить меня
Войти через:  Facebook Google Twitter Vk Yandex Mail.ru

Airbourne - Girls In Black - текст песни, таба, видео

Печатать
Просмотров: 328
Авторы музыки: Ryan O'Keeffe, Joel O'Keeffe
Авторы текста: Ryan O'Keeffe, Joel O'Keeffe
I generated this tab using Guitar Pro, so it's a little bit confusing, but you'll get it.

Duration Legend
---------------
W - whole
H - half
Q - quarter
E - 8th
S - 16th
T - 32nd
X - 64th
. - note dotted
|-n-|  - n-tuplets


Tablature Legend
----------------
L - tied note
x - dead note
h - hammer on
p - pull off
b - bend
br - bendRelease
/ -  slide into from below or out of upwards
\ -  slide into from above or out of downwards
~ - vibrato
tr - trill
TP - tremolo picking


Half Step *UP* tunning. It's f****** strange, but it's the only way to play this.


INTRO
      E  E  E  E  E  E  E  E     E  E  E  E  Q    Q
F ||--------------------------|------------------------|
C ||--------------------------|-------------------3----|
G#||--------------------------|-------------------2----|
D#||-----------2-----2-----2--|--L-----------2----0----|
A#||--2-----2--0-----0-----2--|--L--2-----2--0---------|
F ||--0--3--0--------------0--|--L--0--3--0------------|


  E  E  E  E  E  E  E  E     E  E  E  E  Q    Q       E  E  E  E  E  E  E  E
--------------------------|------------------------|--------------------------|
--------------------------|-------------------3----|--------------------------|
--------------------------|-------------------2----|--------------------------|
-----------2-----2-----2--|--L-----------2----0----|-----------2-----2-----2--|
--2-----2--0-----0-----2--|--L--2-----2--0---------|--2-----2--0-----0-----2--|
--0--3--0--------------0--|--L--0--3--0------------|--0--3--0--------------0--|


  E  E  E  E  Q    Q       E  E  E  E  E  E  E  E     E  E  E  E  Q    Q
------------------------|--------------------------|------------------------|
-------------------3----|--------------------------|-------------------3----|
-------------------2----|--------------------------|-------------------2----|
--L-----------2----0----|-----------2-----2-----2--|--L--2--------2----0----|
--L--2-----2--0---------|--2-----2--0-----0-----2--|--L--2-----2--0---------|
--L--0--3--0------------|--0--3--0--------------0--|--L--0--3--0------------|


VERSE GUITAR 1
    Q    E  H        E     H        E   E   Q        Q    E  H        E
|-----------------------|-------------------------|----------------------|
|-----------3--------L--|--L--------L---L---------|----------------------|
|*----------2--------L--|--L--------L---L---------|--2-------------------|
|*--2-------0--------L--|--L--------L---L---------|--2-------2--------L--|
|---2-------------------|-------------------------|--0-------2--------L--|
|---0-------------------|--------------(0)--3b----|----------0--------L--|

  H        E  E  E  E
-----------------------|
-----------------------|
-----------------------|
--L--------L-----------|
--L--------L-----------|
--L--------L--3--2--0--|


VERSE GUITAR 2
    Q    E  H        E     E  E  E  E  Q    Q        Q    E  H        E
|--------------------0--|--------0----------------|----------------------|
|-----------3--------L--|--L--3-----3-------------|----------------------|
|*----------2--------L--|--L-----------2----------|--2-------------------|
|*--2-------0--------L--|--------------L----------|--2-------2--------L--|
|---2-------------------|-------------------------|--0-------2--------L--|
|---0-------------------|-------------------3b----|----------0--------L--|

  H        E  E  E  E
-----------------------|
-----------------------|
-----------------------|
--L--------L-----------|
--L--------L-----------|
--L--------L--3--2--0--|


PRE-CHORUS
   Q.     Q.     Q       Q    Q.     E  E  E
|--3------------------|-----------------------|
|--3------------------|-----------------------|
|--0------2-----------|-----------------------|
|--0------2------2----|--L-----------2--0-----|
|---------0------2----|--L-----------------2--|
|----------------0----|--L--------------------|


  Q.     Q.     Q       Q    Q.     E  E  E     Q.     Q.     Q
--3------------------|-----------------------|--3------------------|
--3------------------|-----------------------|--3------------------|
--0------2-----------|-----------------------|--0------2-----------|
--0------2------2----|--L-----------2--0-----|--0------2------2----|
---------0------2----|--L-----------------2--|---------0------2----|
----------------0----|--L--------------------|----------------0----|


  Q    Q.     E  E  E     Q.     Q.     Q       W
-----------------------|--3------------------|-------------------|
-----------------------|--3-------------3----|--L----------------|
-----------------------|--0------2------2----|--L----------------|
--L-----------2--0-----|--0------2------0----|--L----------------|
--L-----------------2--|---------0-----------|-------------------|
--L--------------------|---------------------|-------------------|


CHORUS
  E  E  E  E  E  E  E  E     E  E  E  E  Q    Q       E  E  E  E  E  E  E  E
--------------------------|------------------------|--------------------------|
--------------------------|-------------------3----|--------------------------|
--------------------------|-------------------2----|--------------------------|
-----------2-----2-----2--|--L-----------2----0----|-----------2-----2-----2--|
--2-----2--0-----0-----2--|--L--2-----2--0---------|--2-----2--0-----0-----2--|
--0--3--0--------------0--|--L--0--3--0------------|--0--3--0--------------0--|


  E  E  E  E  Q    Q       E  E  E  E  E  E  E  E     E  E  E  E  Q    Q
------------------------|--------------------------|------------------------|
-------------------3----|--------------------------|-------------------3----|
-------------------2----|--------------------------|-------------------2----|
--L--2--------2----0----|-----------2-----2-----2--|--L-----------2----0----|
--L--2-----2--0---------|--2-----2--0-----0-----2--|--L--2-----2--0---------|
--L--0--3--0------------|--0--3--0--------------0--|--L--0--3--0------------|


  E  E  E  E  E  E  E  E     E  E  E  E  Q    Q
--------------------------|-------------------------|
--------------------------|-------------------3-----|
--------------------------|-------------------2----*|
-----------2-----2-----2--|--L--2--------2----0----*|
--2-----2--0-----0-----2--|--L--2-----2--0----------|
--0--3--0--------------0--|--L--0--3--0-------------|


POST-CHORUS
   Q.     Q.     Q
|---------3-----------|
|---------3-----------|
|---------0-----------|
|--2------0------2----|
|--2-------------2----|
|--0-------------0----|

  E  Q.     Q    Q        Q.     Q.     Q       E  Q.     Q    Q
-----------------------|---------3-----------|-----------------------|
-----------------------|---------3-----------|-----------------------|
-----2-----------------|---------0-----------|-----2-----------------|
--L--2------2----------|--2------0------2----|--L--2------2----------|
--L--0------2----------|--2-------------2----|--L--0------2----------|
--L---------0----3b----|--0-------------0----|--L---------0----3b----|


"SOLO"
    E   E   E   Q.      E   E
|------------------------------|
|------------------------------|
|--------------12--------------|
|--14--12------12------14--12--|
|----------14------------------|
|------------------------------|

   E    Q.        E     E    E   E      E   E   E   Q.      E   E
------------------------------------|------------------------------|
------------------------------------|------------------------------|
-------14--------14----12-----------|--------------12--------------|
------(14)------(14)--(12)--14--12--|--14--12------12------14--12--|
--14--------------------------------|----------14------------------|
------------------------------------|------------------------------|


   E    Q.        E     E    E   E      E   E   E   Q.      E   E
------------------------------------|------------------------------|
------------------------------------|------------------------------|
-------14--------14----12-----------|--------------12--------------|
------(14)------(14)--(12)--14--12--|--14--12------12------14--12--|
--14--------------------------------|----------14------------------|
------------------------------------|------------------------------|


   E    Q.        E     E    E   E      E   E   E   Q.      E    E
------------------------------------|---------------------------14--|
------------------------------------|----------------------17b------|
-------14--------14----12-----------|--------------12---------------|
------(14)------(14)--(12)--14--12--|--14--12------12---------------|
--14--------------------------------|----------14-------------------|
------------------------------------|-------------------------------|


   E   Q     E      Q     Q
------14----17--17g19~----L\----|
--17----------------------------|
--------------------------------|
--------------------------------|
--------------------------------|
--------------------------------|


Now just repeat in the correct order and it's done.
Добавлено: 25.07.2013
Другие материалы по этой песне:

Страница создана 25.07.2013
http://primanota.ru/airbourne/girls-in-black-chords.htm
Привет, Гость.
Предлагаем пройти революционный курс по гитаре.
Подарок от PrimaNota.Ru, забирай!