PrimaNota.ru - самый крупный в мире бесплатный архив песенных текстов, аккордов, табулатур и нот


Airbourne - Born To Kill - таба, видео

Регистрация Запомнить меня
Войти через:  Facebook Google Twitter Vk Yandex Mail.ru

Airbourne - Born To Kill - таба, видео

Печатать
Просмотров: 249
Уроки эстрадного вокала в Санкт-Петербурге
Авторы музыки: Ryan O'Keeffe, Joel O'Keeffe
Авторы текста: Ryan O'Keeffe, Joel O'Keeffe
-----------------------------------------------------------------------------
                        Born to Kill  -  Airbourne
-----------------------------------------------------------------------------

Tabbed by: Sir Sidd Sixx
Email: sirsiddsixx@goldmail.de

Tuning: Standart

----------------
INTRO/MAIN THEME
----------------

e|--------------------------------||--------------------------------|
H|------3-----3---------------3---||------------------------3---3---|
G|------2-----2---------------2---||------------------------2---2---|
D|------0-----0-----2-2---2---0---||--2-2---2-----2-----2---0---0---|
A|2-----------------0-0---0-------||--0-0---0-----0-----0-----------|
E|0---0-----------3-----3---------||3-----3-----3-----3---3---------|
  
  1   2   3   4   1   2   3   4     1   2   3   4   1   2   3   4   

-----
VERSE
-----

e|--------------------------------||--------------------------------|
H|------3---------------3---------||--------------------------------|
G|------2---------------2---------||------------2---------------2---|
D|------0-----2---------0-----2---||2-2---2-----0---2-2---2-----0---|
A|2-----------0---2-----------0---||0-0---0---3---3-0-0---0---3-----|
E|0---0-----3---3-0---0-----3-----||----3---------------3-----------|

  1   2   3   4   1   2   3   4     1   2   3   4   1   2   3   4

------
BRIDGE
------

e|--------------------------------|
H|--------------------------------|
G|--------------------------------|
D|4---4---4---4---7-7-7-7-7-7-7-7-|
A|2---2---2---2---5-5-5-5-5-5-5-5-|
E|--------------------------------|

  1   2   3   4   1   2   3   4   

---------
SOLO PART
---------

e|--------------------------------|
H|----------------------3-----3---|
G|------2---------------2-----2---|     THE REST IS THE "VERSE" PART
D|2-----0---------2-----0-----0---|
A|0---0-----0-3-0-0---0-----3-----|
E|--------------------------------|

  1   2   3   4   1   2   3   4   

---------
INTERLUDE
---------

e|--------------------------------|
H|------------------5-----5---5---|
G|------2-----------4-----4---4---|
D|------0-------------------------|
A|2-------------------------------|
E|0---0---------------------------|

  1   2   3   4   1   2   3   4   

************************************

| /   slide up
| \   slide down
| h   hammer-on
| p   pull-off
| ~   vibrato
| +   harmonic
| x   Mute note
| b   Bend
| pb  Pre-bend
| br  Bend release
| pbr Pre-bend release
| brb Bend release bend

************************************
Добавлено: 15.06.2013
Другие материалы по этой песне:

Страница создана 15.06.2013
http://primanota.ru/airbourne/born-to-kill-chords.htm
Привет, Гость.
Предлагаем пройти революционный курс по гитаре.
Подарок от PrimaNota.Ru, забирай!