PrimaNota.ru - самый крупный в мире бесплатный архив песенных текстов, аккордов, табулатур и нот


Airbourne - Blackjack - текст песни, таба, видео

Регистрация Запомнить меня
Войти через:  Facebook Google Twitter Vk Yandex Mail.ru

Airbourne - Blackjack - текст песни, таба, видео

Печатать
Просмотров: 201
Авторы музыки: Ryan O'Keeffe, Joel O'Keeffe
Авторы текста: Ryan O'Keeffe, Joel O'Keeffe
Blackjack
Airbourne

Intro

e------------------5-|
B--5-4-4-5-4---5-4-5-|
G-5---5-------5---5--|
D--------------------|
A--------------------|
E--------------------|





Chorus  

e-------------------------3-3---------------------|
B---------------3---------3-3---3---0-------------|
G---------2-2---2---2-2---0-0---2---0-------------|   (X4)
D---------2-2---0---2-2---0-0---0---0-------------|
A--3p0----0 0-------0 0---2-2---------------------|
E-------------------------3-3---------------------|



Verse



e|----------------------------------------------------|
B|------------------------3---------------------------|
G|---------2------2-------2---------------------------|
D|---------2------2-------0---------------------------|      (x4)
A|---3p0---0-3p0—-0—3p0-------------------------------|
E|----------------------------------------------------|


e|---3------------------------------------------------|
B|---3--(let Ring)-----3------------------------------|
G|---0-----------------2--(let ring)------------------|
D|---0-----------------0------------------------------|
A|---2------------------------------------------------|
E|---3------------------------------------------------|


e|----------------------------------------------------|
B|------------------------3---------------------------|
G|---------2------2-------2---------------------------|
D|---------2------2-------0---------------------------|
A|---3p0---0-3p0—-0—3p0-------------------------------|
E|----------------------------------------------------|

e|---3------------------------------------------------|
B|---3--(let Ring)-----3------------------------------|
G|---0-----------------2--(let ring)------------------|
D|---0-----------------0------------------------------|
A|---2------------------------------------------------|
E|---3------------------------------------------------|


e|----------------------------------------------------|
B|------------------------3---------------------------|
G|------------------------2----2----------------------|
D|---------2------2-------0----2----------------------|
A|---3p0---2-3p0—-2—3p0--------0----------------------|
E|---------0------0-----------------------------------|


Chorus  

e-------------------------3-3---------------------|
B---------------3---------3-3---3---0-------------|
G---------2-2---2---2-2---0-0---2---0-------------|   (X4)
D---------2-2---0---2-2---0-0---0---0-------------|
A--3p0----0 0-------0 0---2-2---------------------|
E-------------------------3-3---------------------|










Verse



e|----------------------------------------------------|
B|------------------------3---------------------------|
G|---------2------2-------2---------------------------|
D|---------2------2-------0---------------------------|      (x4)
A|---3p0---0-3p0—-0—3p0-------------------------------|
E|----------------------------------------------------|


e|---3------------------------------------------------|
B|---3--(let Ring)-----3------------------------------|
G|---0-----------------2--(let ring)------------------|
D|---0-----------------0------------------------------|
A|---2------------------------------------------------|
E|---3------------------------------------------------|


e|----------------------------------------------------|
B|------------------------3---------------------------|
G|---------2------2-------2---------------------------|
D|---------2------2-------0---------------------------|
A|---3p0---0-3p0—-0—3p0-------------------------------|
E|----------------------------------------------------|

e|---3------------------------------------------------|
B|---3--(let Ring)-----3------------------------------|
G|---0-----------------2--(let ring)------------------|
D|---0-----------------0------------------------------|
A|---2------------------------------------------------|
E|---3------------------------------------------------|


e|----------------------------------------------------|
B|------------------------3---------------------------|
G|------------------------2----2----------------------|
D|---------2------2-------0----2----------------------|
A|---3p0---2-3p0—-2—3p0--------0----------------------|
E|---------0------0-----------------------------------|


Chorus  

e-------------------------3-3---------------------|
B---------------3---------3-3---3---0-------------|
G---------2-2---2---2-2---0-0---2---0-------------|   (X4)
D---------2-2---0---2-2---0-0---0---0-------------|
A--3p0----0 0-------0 0---2-2---------------------|
E-------------------------3-3---------------------|


e|----------------------------------------------------|
B|------------------------3-3-------------------------|
G|--------------2---------2-2--2---0------------------|
D|--------2-2---2---2-2---0-0--2---0------------------|     (X4)
A|--3p0---2-2---0—-—2-2--------0---0------------------|
E|--------0-0-------0-0-------------------------------|

Solo 

e-------------------------3-3---------------------|
B---------------3---------3-3---3---0-------------|
G---------2-2---2---2-2---0-0---2---0-------------|   (X4)
D---------2-2---0---2-2---0-0---0---0-------------|
A--3p0----0 0-------0 0---2-2---------------------|
E-------------------------3-3---------------------|



Brigde

e|--------------------------3-3-----------------------|
B|--------------------------3-3---3--0----------------|
G|---2----------------------0-0---2--0----------------|
D|---2—-(let Ring)----------0-0---0--0----------------|
A|---0----------------------2-2-----------------------|
E|--------------------------3-3-----------------------|



Chorus  

e-------------------------3-3-------------|--------|
B---------------3---------3-3---3---0-----|--------|
G---------2-2---2---2-2---0-0---2---0-----|---2--*-|   (X12)
D---------2-2---0---2-2---0-0---0---0-----|---2----|
A--3p0----0 0-------0 0---2-2-------------|---0----|
E-------------------------3-3-------------|--------|

•	and the last one you can play this very hard 
I forget the intro LOL
and that's all

Contact : miguetano@gmail.com
AWANTE AUDAX ITALIANO!!!!
Добавлено: 01.09.2013
Другие материалы по этой песне:
  • Аккорды и текст

Страница создана 01.09.2013
http://primanota.ru/airbourne/blackjack-chords.htm
Привет, Гость.
Предлагаем пройти революционный курс по гитаре.
Подарок от PrimaNota.Ru, забирай!