PrimaNota.ru - самый крупный в мире бесплатный архив песенных текстов, аккордов, табулатур и нот


Wwe - Undertaker Ministry - таба, видео

Регистрация Запомнить меня
Войти через:  Facebook Google Twitter Vk Yandex Mail.ru

Wwe - Undertaker Ministry - таба, видео

Печатать
Просмотров: 356
Intro
Eb|----------------------------------------------------------------| 
Bb|----------------------------------------------------------------| 
Gb|----------------------------------------------------------------| 
Db|----------------------------------------------------------------| 
Ab|----------------------------------------------------------------| 
Db|---5/9b---------------------------------------------------------| 

Main riff              Palm mute after all 0-7's                    
Eb|----------------------------------------------------------------| 
Bb|----------------------------------------------------------------| 
Gb|----------------------------------------------------------------| 
Db|----------------------------------------------------------------| 
Ab|----------------------------------------------------------------| 
Db|---12-0—12\---7br-00-7---0-7--7br-00-8—-0-7--9br-00-8-----------| 
		
			
Eb|----------------------------------------------------------------| 
Bb|----------------------------------------------------------------| 
Gb|----------------------------------------------------------------| 
Db|----------------------------------------------------------------| 
Ab|----------------------------------------------------------------| 
Db|-0-8--8br-00-8----0-7-7br-7b----0-7-8br-8b—-----0-7—7h8-00-7----| 

                                                            
Eb|----------------------------------------------------------------| 
Bb|----------------------------------------------------------------| 
Gb|----------------------------------------------------------------| 
Db|----------------------------------------------------------------| 
Ab|----------------------------------------------------------------| 
Db|-0-7-8br-00-8-0-7-78b-------------------------------------------| 

Solo
Eb|----------------------------------------------------------------| 
Bb|--15W---------------------------------------------------17bu----| 
Gb|----------------------------------------------------------------| 
Db|-----------------------------15h16—14h15-13h4-10p-7b------------| 
Ab|--------12h13h12h13--15-------------------------------------7W--| 
Db|----------------------------------------------------------------| 

Reapeat Main riff throuought song


W=Whammy bar
B=bend
Bu=bend up
Добавлено: 24.07.2012
Другие материалы по этой песне:
  • Аккорды и текст

Страница создана 24.07.2012
http://primanota.ru/wwe/undertaker-ministry-chords.htm
Привет, Гость.
Предлагаем пройти революционный курс по гитаре.
Подарок от PrimaNota.Ru, забирай!