PrimaNota.ru - самый крупный в мире бесплатный архив песенных текстов, аккордов, табулатур и нот


Wolfmother - Victorious - таба, видео

Регистрация Запомнить меня
Войти через:  Facebook Google Twitter Vk Yandex Mail.ru

Wolfmother - Victorious - таба, видео

Печатать
Просмотров: 86
-------------------------------------------------------------------------------
                             Victorious - Wolfmother
-------------------------------------------------------------------------------
Tabbed by: matanred
E-mail:matanred@gmail.com

Tuning: EADGBe

Intro/Verse:

e|----------------------------------------------------------------------------------------------|
B|----------------------------------------------------------------------------------------------|
G|-9--------------------7-----------------------------------------------------------------------|
D|-9--------------------7-----------------------------------------------------------------------| X6
A|-7--------------------5--------------------4h5p4-4h5p4-4h5p4----------------------------------|
E|---0-0-0-0-0--0-0-0-0---0-0-0-0-0--0-0-0-0-------------------3b4-0--0-0-0-0-0--0-0-0-0--------|

e|---------------------------------------------------------------------------|
B|---------------------------------------------------------------------------|
G|---------------------------------------------------------------------------|
D|---------------------------------------------------------------------------| X2
A|-4h5p4-4h5p4-4h5p4---------------------------------------------------------|
E|-------------------3b4-0--0-0-0-0-0--0-0-0-0-------------------------------|

Chorus:

e|-------------0~----0~------------------------------------------------------|
B|-------------2~----0~------------------------------------------------------|
G|-9~----7~----2~----1~------------------------------------------------------|
D|-9~----7~----2~----2~------------------------------------------------------| X3
A|-7~----5~----0~----2~------------------------------------------------------|
E|-------------------0~------------------------------------------------------|

e|---------------------------------------------------------------------------|
B|---------------------------------------------------------------------------|
G|-9-----7-----------------9-------------------------------------------------|
D|-9-----7-----------------9-------------------------------------------------|
A|-7-----5----4-5-4-5-4-5--7-------------------------------------------------|
E|---------------------------------------------------------------------------|

Bridge:

e|-0~----2~----0~----0~------------------------------------------------------|
B|-0~----3~----2~----0~------------------------------------------------------|
G|-1~----2~----2~----1~------------------------------------------------------|
D|-2~----0~----2~----2~------------------------------------------------------| X3
A|-2~----------0~----2~------------------------------------------------------|
E|-0~----------------0~------------------------------------------------------|

e|-0~----2~----0~------------------------------------------------------------|
B|-0~----3~----2~------------------------------------------------------------|
G|-1~----2~----2~------------------------------------------------------------|
D|-2~----0~----2~------------------------------------------------------------|
A|-2~----------0~------------------------------------------------------------|
E|-0~------------------------------------------------------------------------|

Interlude:

e|---------------------------------------------------------------------------|\
B|---------------------------------------------------------------------------| \
G|---------------------------------------------------------------------------|  \
D|-------------------------5~------------------------------------------------|X3 |
A|---------------------5h7---------------------------------------------------|   |
E|-0-0-0-0-0-0-0-0-5h7-------------------------------------------------------|   |
                                                                                 | X2
e|---------------------------------------------------------------------------|   |
B|---------------------------------------------------------------------------|   |
G|---------------------------------------------------------------------------|   |
D|-----------------4h5p4---4-------------------------------------------------|  /
A|-----------------------5---5-7~--------------------------------------------| /
E|-0-0-0-0-0-0-0-0-----------------------------------------------------------|/

e|---------------------------------------------------------------------------|   
B|---------------------------------------------------------------------------|   
G|---------------------------------------------------------------------------|  
D|-----------------4h5p4---4-------------------------------------------------| X2
A|-----------------------5---5-7~--------------------------------------------| 
E|-0-0-0-0-0-0-0-0-----------------------------------------------------------|

Outro:

e|----------------------------------------------------------------------------------------------|
B|----------------------------------------------------------------------------------------------|
G|-9--------------------7-----------------------------------------------------------------------|
D|-9--------------------7-----------------------------------------------------------------------| 
A|-7--------------------5--------------------4h5p4-4h5p4-4h5p4----------------------------------|
E|---0-0-0-0-0--0-0-0-0---0-0-0-0-0--0-0-0-0-------------------3b4-0--0-0-0-0-0--0-0-0-0--------|

e|----------------------------------------------------------------------------------------------|
B|----------------------------------------------------------------------------------------------|
G|-9--------------------7-----------------------------------------------------------------------|
D|-9--------------------7-----------------------------------------------------------------------| 
A|-7--------------------5--------------------4h5p4-4h5p4-4h5p4-----4h5p4-4h5p4-4h5p4------------|
E|---0-0-0-0-0--0-0-0-0---0-0-0-0-0--0-0-0-0-------------------3b4-------------------3b4--------|

e|----------------------------|
B|----------------------------|
G|----------------------------|
D|-----------------------2----| 
A|4h5p4-4h5p4-4h5p4------2----|
E|-------------------3b4-0----|



************************************

| /   slide up
| \   slide down
| h   hammer-on
| p   pull-off
| ~   vibrato
| +   harmonic
| x   Mute note
| b   Bend
| pb  Pre-bend
| br  Bend release
| pbr Pre-bend release
| brb Bend release bend

************************************
Добавлено: 08.03.2016
Другие материалы по этой песне:
  • Аккорды и текст

Страница создана 08.03.2016
http://primanota.ru/wolfmother/victorious-chords.htm
Привет, Гость.
Предлагаем пройти революционный курс по гитаре.
Подарок от PrimaNota.Ru, забирай!