PrimaNota.ru - самый крупный в мире бесплатный архив песенных текстов, аккордов, табулатур и нот


Wolf Alice - 90 Mile Beach - таба, видео

Регистрация Запомнить меня
Войти через:  Facebook Google Twitter Vk Yandex Mail.ru

Wolf Alice - 90 Mile Beach - таба, видео

Печатать
Просмотров: 44
Song: 90 Mile Beach
Artist: Wolf Alice
Album: Blush EP

Tabbed by: Michael Saikaley

This tab is a bit disorganized but I provided the barebones for the song. I'm missing some tiny details but the
notes provided should be an adequate start in playng the song without all its extremities. 

I set time signatures above various parts in reference to the studio version of the song.



Ellie Intro (0:00 - 0:20):
E|--------------------------------------------
B|--------------------------------------------
G|--------------------------------------------
D|-----9-----7-----7--------7-----6-----6-----
A|--7--7--7--7--7-----7--7--7--7--7--7-----7--
E|--------------------------------------------


Joff plays the intro to this song with a glass slide, I've tried to figure out a way without one (0:10 - 0:20):

E|--------------------------------------------
B|--------------------------------------------
G|--7p6h7p6-----6p4h6p4-----7p6h7p6-----9--1--
D|-----------7-----------6-----------7--------
A|--------------------------------------------
E|--------------------------------------------

Alternative way to play Joff's intro:

E|--------------------------------------
B|--------------------------------------
G|--7--6-----6--6--1--7--6-----6--9--1--
D|--------7-----------------7-----------
A|--------------------------------------
E|--------------------------------------



Ellie (0:20 - 1:00)
E|--------------------------------------------------
B|--------------------------------------------------
G|--------------------------------------------------
D|--4--------4--------4-----4--------4--------4-----  
A|-----5--5-----5--5-----5-----5--5-----5--5-----5--
E|--------------------------------------------------


E|--------------------------------------------------
B|--------------------------------------------------
G|--------------------------------------------------
D|--6--------6--------6-----6--------6--------6-----
A -----7--7-----7--7-----7-----7--7-----7--7-----7--
E|--------------------------------------------------

Joff (1:00 - 1:20)
E|--------------------------------------------
B|--------------------------------------------
G|--7p6h7p6-----6p4h6p4-----7p6h7p6-----9--1--
D|-----------7-----------6-----------7--------
A|--------------------------------------------
E|--------------------------------------------

Alternative:

E|--------------------------------------
B|--------------------------------------
G|--7--6-----6--6--1--7--6-----6--9--1--
D|--------7-----------------7-----------
A|--------------------------------------
E|--------------------------------------


Ellie: (1:00 - 1:20)

E|--------------------------------------------
B|--------------------------------------------
G|--------------------------------------------
D|-----9-----7-----7--------7-----6-----6-----
A|--7--7--7--7--7-----7--7--7--7--7--7-----7--
E|--------------------------------------------



Ellie: (1:40 - 2:20)
E|--------
B|--------
G|--------   (Put on distortion and single strum each chord then repeat)
D|--4--6--
A|--5--7--
E|--------


Joff's solo (play around tremolo picking these notes 2:20-2:58):
E|-----------------------------------------------------------------------------------------------------
B|-----------------------------------------------------------------------------------------------------
G|--2/1t--2/1t--1\4/1t--4/1t---7t--6t--4t--6t--4t--2t--4t--2t--1t--2t--1t-----1t-----1t----------------
D|------------------------------------------------------------------------2t-----2t-----2t--(x2)-------
A|-----------------------------------------------------------------------------------------------5--7--
E|-----------------------------------------------------------------------------------------------------


E|---------------------------------------------
B|--15\17--17--15--15--15--14------14----------
G|-----------------------------16------16--14--
D|---------------------------------------------
A|---------------------------------------------
E|---------------------------------------------

E|--------------------------------------------------------------------------------------------------
B|--------------13----------------------13----------------------13----------------------13----------
G|--13--14--16------16--14--13--14--16------16--14--13--14--16------16--14--13--14--16------16--14--
D|--------------------------------------------------------------------------------------------------
A|--------------------------------------------------------------------------------------------------
E|--------------------------------------------------------------------------------------------------

Outro: (3:20 - end)

Joff:
E|--------------------------------------
B|--------------------------------------
G|--7--6-----6--6--1--7--6-----6--9--1--
D|--------7-----------------7-----------
A|--------------------------------------
E|--------------------------------------

E|----------------------------------
B|----------------------------------
G|--7--6-----6--6--1--------9\11/9--
D|--------7-------------------------
A|--------------------7--9----------
E|----------------------------------

Ellie:

E|--------------------------------------------
B|--------------------------------------------
G|--------------------------------------------
D|-----9-----7-----7--------7-----6-----6-----
A|--7--7--7--7--7-----7--7--7--7--7--7-----7--
E|--------------------------------------------
Добавлено: 18.04.2016
Другие материалы по этой песне:
  • Аккорды и текст

Страница создана 18.04.2016
http://primanota.ru/wolf-alice/90-mile-beach-chords.htm
Привет, Гость.
Предлагаем пройти революционный курс по гитаре.
Подарок от PrimaNota.Ru, забирай!