PrimaNota.ru - самый крупный в мире бесплатный архив песенных текстов, аккордов, табулатур и нот


Wolf Alice - Giant Peach - таба, видео

Регистрация Запомнить меня
Войти через:  Facebook Google Twitter Vk Yandex Mail.ru

Wolf Alice - Giant Peach - таба, видео

Печатать
Просмотров: 40
-------------------------------------------------------------------------------
                            GIANT PEACH - Wolf Alice
-------------------------------------------------------------------------------
Tabbed by: zacharylindro
E-mail: zacharylindrose1998@gmail.com

Tuning: Standard


INTRO


e|------------------------------------------------|
B|------------------------------------------------|
G|------------------------------------------------|
D|----14----14--14----14----14--14----14----14--14|
A|------------------------------------------------|
E|1212--1212--12--1212--1212--12--1212--1212--12--|     (x4) (twelve twelve fourteen)


2ND INTRO RIFF


e |-----------------------------------------------------|
b |-----------------------------------------------------|
g |-----------------------------------------------------|
D |---------------0--------------------------0----------|     (x2)
A |-----7-----7-----7---7/5--7-----7-----7-----7--9p7--7|
E |-0-0---0-0---0-----0-----0--0-0---0-0---0-----0----0-|
    * *   * *   *     *     *  * *   * *   *     *    *


3RD INTRO RIFF


e|-------------------------------------------0|
B|--------------------------------------------|
G|11h12p11-----11h12p11-11h12p11-----11h12p11-|
D|--------12/14-----------------12/14---------|     (x2)
A|--------------------------------------------|
E|---------------------0----------------------|


PRE-VERSE


e|--------------------------------|
B|--------------------------------|
G|--------------------------------|
D|--------------------------------|
A|--------------------------------|
E|14141414141414141515151517171717|


VERSE 1 ("I got change in a pocket somewhere")



e|------------------------------------------------|
B|------------------------------------------------|
G|------------------------------------------------|
D|----14----14--14----14----14--14----14----14--14|
A|------------------------------------------------|
E|1212--1212--12--1212--1212--12--1212--1212--12--|     (x4) (twelve twelve fourteen)


e|-----------------|
B|-----------------|
G|-----------------|
D|00000000/00000000|
A|22222222/44444444|
E|33333333/55555555|


VERSE 2 ("I don't tell lies no more")



e|------------------------------------------------|
B|------------------------------------------------|
G|------------------------------------------------|
D|----14----14--14----14----14--14----14----14--14|
A|------------------------------------------------|
E|1212--1212--12--1212--1212--12--1212--1212--12--|     (x4) (twelve twelve fourteen)


e|-----------------|
B|-----------------|
G|-----------------|
D|00000000/00000000|
A|22222222/44444444|
E|33333333/55555555|


SOLO


e|--------------------------------------------------------------------------------------------------
B|--------------------------------------------------------------------------------------------------
G|--19--18--16--14--------19--18--16--14--------18--16--14--------0909090909090909/10101010/12121212
D|--------------------------------------------------------------------------------------------------
A|17--16--14--12--11121417--16--14--12--11--17--16--14--12--111214----------------------------------
E|--------------------------------------------------------------------------------------------------


VERSE 3 ("I have a tricky love affair")



e|------------------------------------------------|
B|------------------------------------------------|
G|------------------------------------------------|
D|----14----14--14----14----14--14----14----14--14|
A|------------------------------------------------|
E|1212--1212--12--1212--1212--12--1212--1212--12--|     (x4) (twelve twelve fourteen)


e|-----------------|
B|-----------------|
G|-----------------|
D|00000000/00000000|     (slide on the 0 is there just to make tab look cleaner)
A|22222222/44444444|
E|33333333/55555555|


(BASS RIFF)


1ST OUTRO RIFF


e|------------------------------------------------|
B|05~06~07~08~09~10~11~12~13~14~15~16~17~18~19~20*|
G|------------------------------------------------|
D|02~03~04~05~06~07~08~09~10~11~12~13~14~15~16~17*|
A|------------------------------------------------|
E|------------------------------------------------|


2ND OUTRO RIFF


e|--------------------------------------|
B|--------------------------------------|
G|--------------------------------------|
D|------------------------------------14|    (x4)
A|----14141716----------14141716--1617--|
E|1212--------1715141212--------17------|


LAST OUTRO RIFF (other guitar)


e|-------14~~~~~
B|--------------
G|--------------
D|--------------
A|--------------
E|0~~~~~~-------

************************************

| /   slide up
| \   slide down
| h   hammer-on
| p   pull-off
| ~   vibrato
| +   harmonic
| x   Fret hand mute
| *   Palm mute
| b   Bend
| pb  Pre-bend
| br  Bend release
| pbr Pre-bend release
| brb Bend release bend

************************************
Добавлено: 18.04.2016
Другие материалы по этой песне:
  • Аккорды и текст

Страница создана 18.04.2016
http://primanota.ru/wolf-alice/giant-peach-chords.htm
Привет, Гость.
Предлагаем пройти революционный курс по гитаре.
Подарок от PrimaNota.Ru, забирай!