PrimaNota.ru - самый крупный в мире бесплатный архив песенных текстов, аккордов, табулатур и нот


Wolf Alice - Heavenly Creatures - таба, видео

Регистрация Запомнить меня
Войти через:  Facebook Google Twitter Vk Yandex Mail.ru

Wolf Alice - Heavenly Creatures - таба, видео

Печатать
Просмотров: 67
-------------------------------------------------------------------------------
                             Heavenly Creatures - Wolf Alice
-------------------------------------------------------------------------------
Tabbed by:doorbellkid

Tuning: Standard
Capo: 5 (both guitars)

The rhythm is a little hard to understand from the tab but you can just listen to the song to get it.

Guitar 1

Intro and Verse
e|---------------------------------------------------|
B|---------------------------------------------------|
G|---------------------------------------------------| 
D|--------0-------0-------0--------0-------0-------0-|
A|-----4-------4-------4--------2-------2-------2----|
E|--5--------5-------5-------3--------3-------3------|

Chorus
e|----------------------------------------------------------------------------|
B|----------------------------------------------------------------------------|
G|----------------------------------------------------------------------------|
D|--------0-------0-------0--------7-------7-------7--------0-------0-------0-|
A|-----9-------9-------9--------7-------7-------7--------5-------5-------5----|
E|--7--------7-------7-------5--------5-------5-------3--------3-------3------|

e|--------------------------|
B|--------------------------|
G|--------------------------|
D|--------0-------0-------0-|
A|-----5-------5-------5----|
E|--3--------3-------3------|

Guitar 2

Intro and Verse

Joff plays different variations of this throughout the song. I listed all of them below.
You can play whichever variation whenever; it doesn't really matter. You can figure out 
the exact pattern from the song if you want to.

Variation 1  
e|---------------------------5--------5-------5------|
B|--2----------2-------3--------7-------7-------7----|
G|-----2-----2----2-------0--------0-------0-------0-|
D|--------4----------4-------------------------------|
A|---------------------------------------------------|
E|---------------------------------------------------|

Variation 2 
e|----------------------------5--------5-------5------|
B|--2----------2-------2/3-------7-------7-------7----|
G|-----2-----2----2--------0--------0-------0-------0-|
D|--------4----------4--------------------------------|
A|----------------------------------------------------|
E|----------------------------------------------------|

Variation 3
e|---------------------------5--------5-------5------|
B|--2----------2-------3-----7--7-------7-------7----|
G|-----2-----2----2-------0--0-----0-------0-------0-|
D|--------4----------4-------------------------------|
A|---------------------------------------------------|
E|---------------------------------------------------|

Variation 4
e|----------------------------5--------5-------5------|
B|--2----------2-------2/3----7--7-------7-------7----|
G|-----2-----2----2--------0--0-----0-------0-------0-|
D|--------4----------4--------------------------------|
A|----------------------------------------------------|
E|----------------------------------------------------|

Chorus
e|--------0-------0-------0--0-----0----0--0----0--0--5-------------0---------|
B|--7----------7-------7------------------------------------0----3-------3----|
G|-----7-----7-------7----------6-----6-------6----------0-----0-------0----0-|
D|---------------------------------7-------7-------7--------------------------|
A|----------------------------------------------------------------------------|
E|----------------------------------------------------------------------------|

e|--5-------------0---------|
B|--------0----3-------3----|
G|-----0-----0-------0----0-|
D|--------------------------|
A|--------------------------|
E|--------------------------|

Chorus Variation
e|--------0-------0-------0--0-----9----0--9----0--9--10--------5-5--7----5----|
B|--7----------7-------7-------------------------------------7--5--------------|
G|-----7-----7-------7----------6-----6-------6-----------0-----0-0-----0----0-|
D|---------------------------------7-------7-------7---------------------------|
A|-----------------------------------------------------------------------------|
E|-----------------------------------------------------------------------------|

e|--10--------5-5--7----5----|
B|---------7--5--------------|
G|------0-----0-0-----0----0-|
D|---------------------------|
A|---------------------------|
E|---------------------------|


Order for Guitar 1:
Intro/Verse x8
Chorus x4
Intro/Verse x6
Chorus x6
Intro/Verse x6

Order for Guitar 2:
(break) x2
Intro/Verse x6
Chorus x4
Intro/Verse x6
(break) x2
Chorus x3
Chorus Variation x1
(break) x2
Intro/Verse x4

If you have any suggestions or questions please comment them below!

************************************

| /   slide up
| \   slide down
| h   hammer-on
| p   pull-off
| ~   vibrato
| +   harmonic
| x   Mute note
| b   Bend
| pb  Pre-bend
| br  Bend release
| pbr Pre-bend release
| brb Bend release bend

************************************
Добавлено: 31.03.2016
Другие материалы по этой песне:
  • Аккорды и текст

Страница создана 31.03.2016
http://primanota.ru/wolf-alice/heavenly-creatures-chords.htm
Привет, Гость.
Предлагаем пройти революционный курс по гитаре.
Подарок от PrimaNota.Ru, забирай!