PrimaNota.ru - самый крупный в мире бесплатный архив песенных текстов, аккордов, табулатур и нот


Wolf Alice - Baby Aint Made Of China - таба, видео

Регистрация Запомнить меня
Войти через:  Facebook Google Twitter Vk Yandex Mail.ru

Wolf Alice - Baby Aint Made Of China - таба, видео

Печатать
Просмотров: 113
Уроки эстрадного вокала в Санкт-Петербурге
I put time stamps above the guitar parts in reference to this video:
https://www.youtube.com/watch?v=XOeryr0vUbM

I was redundant since the guitar parts played in the first 30 seconds of the song just repeat themselves 
throughout.

Song: Baby Ain't Made of China
Artist: Wolf Alice
Tabbed by: Michael Saikaley
Album: You're a Germ 7" B-side.



0:00 - 0:25

E|-----0--0--0--0--0-------------0--0--0--0--0-------------
B|-----0--0--0--0--0-------------0--0--0--0--0-------------
G|-----1--1--1--1--1-------------1--1--1--1--1-------------
D|-----2--2--2--2--2-------2-----2--2--2--2--2-------2-----
A|-----2--2--2--2--2--0h2--------2--2--2--2--2--0h2--------
E|--0-------------------------0-------------------------0--

0:25 - 0:36

E|--0-------0--------
B|--0-------2--------
G|--3-------2--------
D|--4-(x10)-2-- (x10)
A|--4-------0--------
E|-------------------


0:36 - 0:52
E|-----0--0--0--0--0-------------0--0--0--0--0-------------
B|-----0--0--0--0--0-------------0--0--0--0--0-------------
G|-----1--1--1--1--1-------------1--1--1--1--1-------------
D|-----2--2--2--2--2-------2-----2--2--2--2--2-------2-----
A|-----2--2--2--2--2--0h2--------2--2--2--2--2--0h2--------
E|--0-------------------------0-------------------------0--

0:52 - 0:57 
E|--0-------0--------
B|--0-------2--------
G|--3-------2--------
D|--4-(x10)-2-- (x10)
A|--4-------0--------
E|-------------------

0:52 - 1:25 starts at "Maybe she's insane...."(listen to song for rhythm)
E|-----------
B|-----------
G|-----------
D|--2--6--7--
A|--2--6--7--
E|--0--4--5--

1:25 - 1:43
E|-----0--0--0--0--0-------------0--0--0--0--0-------------
B|-----0--0--0--0--0-------------0--0--0--0--0-------------
G|-----1--1--1--1--1-------------1--1--1--1--1-------------
D|-----2--2--2--2--2-------2-----2--2--2--2--2-------2-----
A|-----2--2--2--2--2--0h2--------2--2--2--2--2--0h2--------
E|--0-------------------------0-------------------------0--

1:43 - 1:50
E|--0-------0--------
B|--0-------2--------
G|--3-------2--------
D|--4-(x10)-2-- (x10)
A|--4-------0--------
E|-------------------

1:50 - 2:10
E|--0-------0--------
B|--0-------2--------
G|--3-------2--------
D|--4-(x10)-2-- (x10)
A|--4-------0--------
E|-------------------

2:10 - 2:15
E|--0-------0--------
B|--0-------2--------
G|--3-------2--------
D|--4-(x10)-2-- (x10)
A|--4-------0--------
E|-------------------


2:15 - 3:23  starts when Ellie says "She said" (listen to song for rhythm, it's quite simple)

E|-----------
B|-----------
G|-----------
D|--2--6--7--
A|--2--6--7--
E|--0--4--5--

or:

E|---0--0--------
B|---0--2--------
G|---3--2--------
D|-2-4--2-------- 
A|-2-4--0--------
E|-0--------------


3:23 end of song, starts at lyrics "love me make me better"(strum each chord once)

E|-----0--0--
B|-----2--0--
G|--3--2--1--
D|--4--2--2--
A|--4--0--2--
E|-----------

Добавлено: 13.03.2016
Другие материалы по этой песне:
  • Аккорды и текст

Страница создана 13.03.2016
http://primanota.ru/wolf-alice/baby-aint-made-of-china-chords.htm
Привет, Гость.
Предлагаем пройти революционный курс по гитаре.
Подарок от PrimaNota.Ru, забирай!