PrimaNota.ru - самый крупный в мире бесплатный архив песенных текстов, аккордов, табулатур и нот


Wolf Alice - Bros - аккорды и текст, таба, видео

Регистрация Запомнить меня
Войти через:  Facebook Google Twitter Vk Yandex Mail.ru

Wolf Alice - Bros - аккорды и текст, таба, видео

Печатать
Просмотров: 419
Bros
Wolf Alice
-------------------------------------------------------------------------------
                             BROS - WOLF ALICE
-------------------------------------------------------------------------------
This is the tab for the acoustic version(https://www.youtube.com/watch?v=gFVaFTpaO2I)
and the chords for the studio version(https://www.youtube.com/watch?v=nrFDuDoZlj8).

Tuning: Standard

Intro
e|---------------------|
B|---------------------|
G|---------------------|
D|---------------------|
A|-222-444-66-77777777-|
E|-000-000-00-00000000-|

e|-----------------------------------------------------|
B|-----------------------------------------------------|
G|-----------------------------------------------------|
D|-----------------------------------------------------|
A|-14-14-14--12-12-12--14-14--11-11-11-11-11-11-11-11--|
E|-0--0--0---0--0--0---0--0---0--0--0--0--0--0--0--0---|

e|--------------------------------------------|
B|--------------------------------------------|
G|--------------------------------------------|
D|--------------------------------------------|
A|-44444444-666-77777-222222-4p2-4p2-22222222-|
E|-55555555-555-55555-000000-0---0---00000000-|

e|---------------------------------------|
B|---------------------------------------|
G|---------------------------------------|    (x2)
D|---------------------------------------|
A|-6666666-5-44444444-22222222-22222222--|
E|-7777777-6-55555555-00000000-00000000--|


Lead Guitar
e|------------------------|
B|--------12-------10-----|
G|--13------13-------13---| (x12)
D|-14---------14----------|
A|------------------------|
E|------------------------|


   E      B     C#m
e|-x-|  |-x-|  |-4-|  
B|-x-|  |-x-|  |-5-|
G|-2-|  |-4-|  |-6-|
D|-2-|  |-4-|  |-6-|
A|-2-|  |-2-|  |-4-|
E|-0-|  |-x-|  |-x-|          


E
Shake your hair

Have some fun

Forget our mothers and past lovers 

Forget everyone
    A
Oh, I'm so lucky
           E      
You are my best friend 
        B               A                            E
There's no one, there's no one that knows me like you do 


E
Are your lights on
         A                 E   
Are your lights still on?
B             A
I'll keep you safe
        E
Keep me strong



E
Remember when we cut our hair

Both looked like boys 

But we didn't care 
         A                           E
Stuck it out together like we always do 
            B               A                 E
Oh, there's no one, there's no one quite like you 


E
Are your lights on
         A                E
Are your lights still on?
B             A
I'll keep you safe
        E
Keep me strong



E
Oh, 
          C#m
Jump that 43
        E
Are you wild like me
          C#m
Raised by wolves and other beasts
                   B
I tell you all the time
        C#m
I'm not mad
                    B
You tell me all the time 
      E
I got plans (x2)



E
Me and you

Me and you 

Me and you 
                
We could do better, I'm quite sure 
A
Me and you

Me and you 

Me and you 
            E    
We could do better, I'm quite sure

B         A         E
Me me me, me me and you (x2)




Wolf Alice: http://wolfalice.co.uk

************************************
| /   slide up
| \   slide down
| h   hammer-on
| p   pull-off
| ~   vibrato
| +   harmonic
| x   Mute note
| b   Bend
| pb  Pre-bend
| br  Bend release
| pbr Pre-bend release
| brb Bend release bend
************************************
Добавлено: 11.09.2015
Другие материалы по этой песне:
  • Аккорды и текст

Страница создана 19.07.2013
http://primanota.ru/wolf-alice/bros-chords.htm
Привет, Гость.
Предлагаем пройти революционный курс по гитаре.
Подарок от PrimaNota.Ru, забирай!