PrimaNota.ru - самый крупный в мире бесплатный архив песенных текстов, аккордов, табулатур и нот


Washya - Wage A War Of Nerves - таба

Регистрация Запомнить меня
Войти через:  Facebook Google Twitter Vk Yandex Mail.ru

Washya - Wage A War Of Nerves - таба

Печатать
Просмотров: 90
-----------------------------------------------------------------------------
                    Wage A War Of Nerves - Washya
-----------------------------------------------------------------------------
Tuning: Standard (EBGDAE)
Intro
E|-------------------------------|----------------------------------|
B|-------------------------------|----------------------------------|
G|-------------------------------|----------------------------------|
D|-------------------------------|----9---7-------------------------|
A|-5/7-3-5/7-3-xx-xx-5/7-3-5\4-3-|-/9---9---9-8-7---7---------------|
E|-3/5-1-3/5-1-xx-xx-3/5-1-3\2-1-|----------------9---9-8-7-5-6-5-3-|
                               x3 

Verses
E|---------------------------------------------------------------------|
B|---------------------------------------------------------------------|
G|---------------------------------------------------------------------|
D|---------------------------------------------------------------------|
A|-3-333-3-333-3-333-3-333-3-333-----2-222-2-222-2-222-2-222-2-222-----|
E|-1-111-1-111-1-111-1-111-1-111/13~-0-000-0-000-0-000-0-000-0-000/12~-|
PM * *** * *** * *** * *** * ***     * *** * *** * *** * *** * *** 

Just Before Chorus
E|--------------------------------|
B|--------------------------------|
G|--------------------------------|
D|--------------------------------|
A|--------------------------------|
E|-/9b~-8b~-7b~-6b~-/9b~-8b~-1bp0-|

Chorus
E|--------------------------------------|
B|--------------------------------------|
G|--------------------------------------|
D|--------------------------------------|
A|---5/8\7---3/5---7/8/10\8---5/7---3/5-|
E|-0-3/6\5-0-1/3-0-5/6/8-\6-0-3/5-0-1/3-|
PM *       *     *          *     * 

Solo
E|-------------------------------------------------------------------------|
B|-------------------------------------------------------------------------|
G|-------------------------------------------------------13h15h16p13h15h16-|
D|-------------------------------------13h15h16p13h15h16-------------------|
A|-------------------12h14h15p12h14h15-------------------------------------|
E|-12h14h15p12h14h15-------------------------------------------------------|

E|--------------------------14----------------14-17-14-------------------|
B|--------------------14-17----17-14----14-17----------17-16-14----14-17-|
G|-13h15h16-16b~~~-16----------------16-------------------------16-------|
D|-----------------------------------------------------------------------|
A|-----------------------------------------------------------------------|
E|-----------------------------------------------------------------------|

E|-14-17-14----------------14-17bp16~~~-|
B|----------17-14----14-17--------------|
G|----------------16--------------------|
D|--------------------------------------|
A|--------------------------------------|
E|--------------------------------------|
Добавлено: 23.07.2013
Другие материалы по этой песне:
  • Аккорды и текст

Страница создана 23.07.2013
http://primanota.ru/washya/wage-a-war-of-nerves-chords.htm
Привет, Гость.
Предлагаем пройти революционный курс по гитаре.
Подарок от PrimaNota.Ru, забирай!