PrimaNota.ru - самый крупный в мире бесплатный архив песенных текстов, аккордов, табулатур и нот


Washya - Hop Across Burning Ashes - таба, видео

Регистрация Запомнить меня
Войти через:  Facebook Google Twitter Vk Yandex Mail.ru

Washya - Hop Across Burning Ashes - таба, видео

Печатать
Просмотров: 54
-----------------------------------------------------------------------------
      Hop Across burning Ashes - Washya
-----------------------------------------------------------------------------
Tuning: Drop D (DADGBE)
Intro
E|----------------------------------------------------------|
B|----------------------------------------------------------|
G|----------------------------------------------------------|
D|----------------------------------------------------------|
A|-4444-333/777777-00-0-00-444-4-44\3/4/7777-7-77-7-00-0-00-|
D|-4444-333/777777-00-0-00-444-4-44\3/4/7777-7-77-7-00-0-00-|x2

Verses
E|-------------------------------------------------|
B|-------------------------------------------------|
G|-------------------------------------------------|
D|-------------------------------------------------|
A|-3p2p0-3p2p0-3p2p0h2---------66\5-66\5-66\5------|
D|---------------------/6bv~~~-66\5-66\5-66\5/9bv~-|
PM ***** ***** *******         **   **   ** 

Chorus
E|------------------------------------------------------------------------|
B|------------------------------------------------------------------------|
G|------------------------------------------------------------------------|
D|---------6-6-666---------4-4-444------7----7----7----------------33---5-|
A|-4-4-444-4-4-444-2-2-222-2-2-222-/-xx-5-xx-5-xx-5-5-555-1-111-xx-11-x-3-|
D|-4-4-444---------2-2-222-----------xx---xx---xx---5-555-1-111-xx----x---|

interlude
E|----------------------------------------------------------|
B|----------------------------------------------------------|
G|----------------------------------------------------------|
D|-----------------------0h2p0------------------------------|
A|-xx-44-xx-77-xx-22-0h2-------2-22-xx-55-xx-00---3-2-------|
D|-xx-44-xx-77-xx-22-------------22-xx-55-xx-00-5-----5-3-2-|
PM                   *** ***** *                * * * * * * 
Добавлено: 02.10.2013
Другие материалы по этой песне:
  • Аккорды и текст

Страница создана 02.10.2013
http://primanota.ru/washya/hop-across-burning-ashes-chords.htm
Привет, Гость.
Предлагаем пройти революционный курс по гитаре.
Подарок от PrimaNota.Ru, забирай!