PrimaNota.ru - самый крупный в мире бесплатный архив песенных текстов, аккордов, табулатур и нот


Washya - Hour Of Need - таба, видео

Регистрация Запомнить меня
Войти через:  Facebook Google Twitter Vk Yandex Mail.ru

Washya - Hour Of Need - таба, видео

Печатать
Просмотров: 82
Уроки эстрадного вокала в Санкт-Петербурге
-----------------------------------------------------------------------------
                    Hour Of Need - Washya
-----------------------------------------------------------------------------
Tuning: Drop D (DADGBE)
Intro
E|------------------------------------------------------------------------|
B|------------------------------------------------------------------------|
G|----------------------------------------------------5p4h5---------------|
D|---------------------------------------5------------------754-----------|
A|-----2*-----2*-------------------3h5h6---2h3*-----------------7p6h7-----|
D|-000----000----2223*-2223*-05030--------------05030-----------------875-|
PM ***    ***    ***   ***   *****              ***** 

Verses
E|--------------------------------------------------------------------|
B|--------------------------------------------------------------------|
G|-----------------------------------------------------------6*-------|
D|-------------5------------------5p4h5*---------8p7p5---5h7----------|
A|-------3h5h6---2h3*-------5h6h7----------------------8--------7p6p4-|
D|-05030--------------05030--------------3523532----------------------|
PM *****              *****              *******   

Just Before Heavy riff
E|-------------------------------------------------|
B|-------------------------------------------------|
G|-------------------------------------------------|
D|---5-------6\5*---5-----------6-------7\6*-------|
A|-------2--------------65356-------3--------43134-|
D|-0---0---0------0---0-65356-0---0---0------43134-|
PM *   *   *      *   *       *   *   *  

Solo
E|-18p14-------------------------------18\14~*-|
B|-------18p15----------------15h17h18---------|
G|-------------14p12----12h14------------------|
D|-------------------13------------------------|
A|---------------------------------------------|
D|---------------------------------------------|

E|------------------------------12h14p12----------------------------17b~-|
B|------------------------11h13----------13p11p10----------10h11h13------|
G|------------------11h13-------------------------13p11p10---------------|
D|------------10h12------------------------------------------------------|
A|------10h12------------------------------------------------------------|
D|-9h11------------------------------------------------------------------|
PM **** ***** ***** 

E|------------------------------------------------8---------|
B|-------10p8---12~------8p6---10~------6p4---8---8p7-5-----|
G|--/7h8------9-----/5h6-----7-----/3h4-----5---9-------7\\-|
D|-/--------------------------------------------------------|
A|----------------------------------------------------------|
D|----------------------------------------------------------|

E|----------------------------------------------------------------|
B|---------------------------------------------------7---7/11p99~-|
G|--------------------------------------------/9p7h9---9----------|
D|-------3---3/7p5-5~-7p5p3-------3---3-5bp3~---------------------|
A|-5p3h5---5----------------5p3h5---5-----------------------------|
D|----------------------------------------------------------------|

E|-/10p7---7h10p7h10p7---/13p10----10h13p11h13p10-------11h13p11h13p11----|
B|-------8-------------8--------11----------------11/12----------------12-|
G|------------------------------------------------------------------------|
D|------------------------------------------------------------------------|
A|------------------------------------------------------------------------|
D|------------------------------------------------------------------------|

E|-------13h15p13h15p13-------16h18p16----16h18p16h18p16----18b~-18b~-|
B|-12/14----------------14/16----------16----------------16/18b~-18b~-|
G|--------------------------------------------------------------------|
D|--------------------------------------------------------------------|
A|--------------------------------------------------------------------|
D|--------------------------------------------------------------------|

Tuning: Drop D (DADGBE)
Intro
E|------------------------------------------------------------------------|
B|------------------------------------------------------------------------|
G|----------------------------------------------------5p4h5---------------|
D|---------------------------------------5------------------754-----------|
A|-----2*-----2*-------------------3h5h6---2h3*-----------------7p6h7-----|
D|-000----000----2223*-2223*-05030--------------05030-----------------875-|
PM ***    ***    ***   ***   *****              ***** 

Verses
E|--------------------------------------------------------------------|
B|--------------------------------------------------------------------|
G|-----------------------------------------------------------6*-------|
D|-------------5------------------5p4h5*---------8p7p5---5h7----------|
A|-------3h5h6---2h3*-------5h6h7----------------------8--------7p6p4-|
D|-05030--------------05030--------------3523532----------------------|
PM *****              *****              *******   

Just Before Heavy riff
E|-------------------------------------------------|
B|-------------------------------------------------|
G|-------------------------------------------------|
D|---5-------6\5*---5-----------6-------7\6*-------|
A|-------2--------------65356-------3--------43134-|
D|-0---0---0------0---0-65356-0---0---0------43134-|
PM *   *   *      *   *       *   *   * 
Добавлено: 06.07.2013
Другие материалы по этой песне:
  • Аккорды и текст

Страница создана 06.07.2013
http://primanota.ru/washya/hour-of-need-chords.htm
Привет, Гость.
Предлагаем пройти революционный курс по гитаре.
Подарок от PrimaNota.Ru, забирай!